White Stripes - When I Hear My Name Chords & Tabs

 

When I Hear My Name Chords & Tabs

White Stripes Chords & Tabs

Version: 3 Type: Tab 0 ratings
1 star 2 stars 3 stars 4 stars 5 stars
comments

When I Hear My Name Tab

this is a great song. i've already tabbed it but that was before i got UBL (under
blackpool lights).so i studied every song in that dvd and this is what i found for
this.it is 100% correct

intro/verse
                       when..         i wanna...        ooooo...
--0-0-0-0-0---0-0-0-0-0------0-0-0-0-0---------0-0-0-0-0-----|
--0-0-0-0-0---0-0-0-0-0------0-0-0-0-0---------0-0-0-0-0-----|
--1-1-1-1-1---1-1-1-1-1------1-1-1-1-1---------1-1-1-1-1-----|
--2-2-2-2-2---2-2-2-2-2------2-2-2-2-2---------2-2-2-2-2-----|
--2-2-2-2-2---2-2-2-2-2------2-2-2-2-2---------2-2-2-2-2-----|
--0-0-0-0-0---0-0-0-0-0------0-0-0-0-0---------0-0-0-0-0-----|

           ooo...      yeah...
--0-0-0-0-0---0-0-0-0-0--------------------------------------|
--2-2-2-2-2---0-0-0-0-0--------------------------------------|
--2-2-2-2-2---1-1-1-1-1--------------------------------------|
--2-2-2-2-2---2-2-2-2-2----4-4-4-4-4-4-4-4-4-4-4-4-4---------|
--0-0-0-0-0---2-2-2-2-2----2-2-2-2-2-2-2-2-2-2-2-2-2---------|
--------------0-0-0-0-0--------------------------------------|

then this goes before the first set of Es and before the second set of Es

--------10---------------|
--10h12-----12-10-8-10-8-|
-------------------------|
-------------------------|
-------------------------|
-------------------------|

and then its
[ Tab from: http://www.guitartabs.cc/tabs/w/white_stripes/when_i_hear_my_name_tab_ver_3.html ]
--------0----0-------0-0-3b0-----0----0-----------------|
----------3b-----------------------3b-------------------|
--------------------------------------------------------|
--------------------------------------------------------|
-----------------2------------2----------2--------------|
-0-3-0-----------0------------0----------0-3-0----------|

--0----0-------0-0-3b0-----0----0---------3b------|
----3b-----------------------3b-------------------|
--------------------------------------------------|
--------------------------------------------------|
-----------2------------2----------2---2----------|
-----------0------------0----------0-3-0----------|

--------0----0-------0-0-3b0----------------------------|
----------3b--------------------------------------------|
--------------------------------------------------------|
------------------------------4-4-4-4-4-4-4-4-4-4-4-4-4-|
-----------------2------------2-2-2-2-2-2-2-2-2-2-2-2-2-|
-0-3-0-----------0--------------------------------------|

--------------------------------------------------------|
------3-------------------------------------------------|
--2-4---4-----------------------------------------------| X4
--------------------------------------------------------|
--------------------------------------------------------|
--------------------------------------------------------|

then repeat the intro again
Comments