White Stripes - Were Going To Be Friends Chords & Tabs

 

Were Going To Be Friends Chords & Tabs

White Stripes Chords & Tabs

Version: 4 Type: Tab 4 ratings
1 star 2 stars 3 stars 4 stars 5 stars
comments

Were Going To Be Friends Tab

   
The White Stripes,

We're Going to be Friends  

Submitted by me, Azurite.  I'm not quite sure if everything here is right, most of it is though! I'm 14 and I've been playing guitar for almost 5 months now. I watched him play this song and picked it up. It's a good song, I love the White Stripes!

Intro:

	G
-------------------
-------------------
-------0--------0-
-------------------
-------------------
---3-------3------

	G					C
------------------------------		-----------------------------
------0-------------0--------		------1-------------1-------
-------------0------------0--	7x	-------------0------------0-
------------------------------		-----------------------------
------------------------------		---3----3-------3-----3----
---3-----3-----3------3-----		-----------------------------
[ Tab from: http://www.guitartabs.cc/tabs/w/white_stripes/were_going_to_be_friends_tab_ver_4.html ]
	G			D		??	G       
-----------------------------|-----------------|-----------------|----------------------------
--------------0-----------0-|-------3-----3--|-------3-----3--|------0-----------0------0-
------0-------------0-------|-----------------|-----------------|------------0---------------
-----------------------------|---0-----0------|-----------------|----------------------------
-----------------------------|-----------------|---3-----3------|----------------------------
---3-----3------3-----3----|-----------------|-----------------|---3-----3----3------3----

	D	??		G
------------------|----------------|----------------------------
-------3------3--|------3----3---|-------------0-----------0-
------------------|----------------|------0------------0-------
---0------0------|----------------|----------------------------	
Comments