White Stripes - Were Going To Be Friends Chords & Tabs

 

Were Going To Be Friends Chords & Tabs

White Stripes Chords & Tabs

Version: 2 Type: Tab 3 ratings
1 star 2 stars 3 stars 4 stars 5 stars
comments

Were Going To Be Friends Tab

   
#----------------------------------PLEASE NOTE---------------------------------#
#This file is the author's own work and represents their interpretation of the #
#song. You may only use this file for private study, scholarship, or research. #
#------------------------------------------------------------------------------#
We're Going to be Friends
White Stripes
White Blood Cells
2001

tab by Bob Gallagher (peacefrogIX@aol.com)
  G
e-----------------|-----------------|-----------------|-----------------|
B-----------0-----|---0-------0-----|---0-------0-----|---0-------0-----|
G---0---0-------0-|-------0-------0-|-------0-------0-|-------0-------0-|
D-----------------|-----------------|-----------------|-----------------|
A-----------------|-----------------|-----------------|-----------------|
E-3---3---3---3---|-3---3---3---3---|-3---3---3---3---|-3---3---3---3---|
          
  
  C    G      D       C         G
e-----------------|-----------------|---2-------------|-----------------|
B---1-------1---0-|-------0-------0-|-------3---3---3-|---0-------0---0-|
G-------0---------|---0-------0-----|-----------------|-------0---------|
D-----------------|-----------------|-0---0-----------|-----------------|
A-3---3---3---3---|-----------------|---------3---3---|-----------------|
E-----------------|-3---3---3---3---|-----------------|-3---3---3---3---|


  D       C         G
e---2-------------|-----------------|
B-------3---3---3-|-------0-------0-|
G-----------------|---0-------0-----|
D-0---0-----------|-----------------|
A---------3---3---|-----------------|
E-----------------|-3---3---3---3---|
  I can tell...

  G
e-----------------|-----------------|-----------------|
B-------0-------0-|-------0-------0-|-------0-------0-|
G---0-------0-----|---0-------0-----|---0-------0-----|
D-----------------|-----------------|-----------------|
A-----------------|-----------------|-----------------|
E-3---3---3---3---|-3---3---3---3---|-3---3---3---3---|
    Walk with m         
  
  C    G      D       C         G
e-----------------|-----------------|---2-------------|-----------------|
B---1-------1---0-|---0-------0-----|-------3---3-----|---0-------0---0-|
G-------0---------|-------0-------0-|---------------0-|-------0---------|
D-----------------|-----------------|-0---0-----------|-----------------|
A-3---3---3---3---|-----------------|---------3---3---|-----------------|
E-----------------|-3---3---3---3---|-----------------|-3---3---3---3---|
  we will rest.

  D       C         G
e---2-------------|-----------------|
B-------3---3---3-|-------0-------0-|
G-----------------|---0-------0-----|
D-0---0-----------|-----------------|
A---------3---3---|-----------------|
E-----------------|-3---3---3---3---|
  safely walk...

  G
e-----------------|-----------------|-----------------|
B-------0-------0-|-------0-------0-|-------0---0---0-|
G---0-------0-----|---0-------0-----|---0-------------|
D-----------------|-----------------|-----------------|
A-----------------|-----------------|-----------------|
E-3---3---3---3---|-3---3---3---3---|-3---3---3---3---|
      here we are...                     
  
  C    G      D       C         G
e-----------------|-----------------|---2-------------|-----------------|
B---1---1---1---0-|---0---0---0---0-|-------3---3---3-|-------0-------0-|
G-----------------|-----------------|-----------------|---0-------0-----|
D-----------------|-----------------|-0---0-----------|-----------------|
A-3---3---3---3---|-----------------|---------3---3---|-----------------|
E-----------------|-3---3---3---3---|-----------------|-3---3---3---3---|
  there's dirt..
[ Tab from: http://www.guitartabs.cc/tabs/w/white_stripes/were_going_to_be_friends_tab_ver_2.html ]
  D       C         G
e---2-------------|-----------------|
B-------3---3---3-|-------3-------3-|
G-----------------|---0-------0-----|
D-0---0-----------|-----------------|
A---------3---3---|-----------------|
E-----------------|-3---3---3---3---|
  we clean up...

  G
e-----------------|-----------------|-----------------|
B---3-------3---3-|-------0-------0-|-------0-------0-|
G-------0---------|---0-------0-----|---0-------0-----|
D-----------------|-----------------|-----------------|
A-----------------|-----------------|-----------------|
E-3---3---3---3---|-3---3---3---3---|-3---3---3---3---|
                   
  
  C    G      D       C         G
e-----------------|-----------------|---2-------------|-----------------|
B---1---1---1---0-|---0-------0-----|-------3---3---3-|-------3-------3-|
G-----------------|-------0-------0-|-----------------|---0-------0-----|
D-----------------|-----------------|-0---0-----------|-----------------|
A-3---3---3---3---|-----------------|---------3---3---|-----------------|
E-----------------|-3---3---3---3---|-----------------|-3---3---3---3---|


  D       C         G
e---2-------------|-----------------|-----------------|
B-------3---3---3-|-------3-------3-|-------3-------0-|
G-----------------|---0-------0-----|---0-------0-----|
D-0---0-----------|-----------------|-----------------|
A---------3---3---|-----------------|-----------------|
E-----------------|-3---3---3---3---|-3---3---3---3---|
 teacher marks...

  C    G                 C                 G          
e-----------------|-----------------|-----------------|-----------------|
B---1-------1---0-|-------0-------0-|---1-------1-----|-------0-------0-|
G-------0---------|---0-------0-----|-------0-------0-|---0-------0-----|
D-----------------|-----------------|-----------------|-----------------|
A-3---3---3---3---|-----------------|-3---3---3---3---|-----------------|
E-----------------|-3---3---3---3---|-----------------|-3---3---3---3---|
  we don't notice any time pass   

  A                 A                 C                 D
e-----------------|-----------------|-----------------|-------2---------|
B-------2---2-----|---2-------2---0-|---1---1---1---0-|---3-------3---3-|
G---2-----------2-|-------2---------|-----------------|-----------------|
D-----------------|-----------------|-----------------|-0---0---0---0---|
A-0---0---0---0---|-0---0---0---0---|-3---3---3---3---|-----------------|
E-----------------|-----------------|-----------------|-----------------|


  G
e-----------------|-----------------|
B---3-------3---3-|---3---3---3---0-|
G-------0---------|-----------------|
D-----------------|-----------------|
A-----------------|-----------------|
E-3---3---3---3---|-3---3---3---3---|
                 
  
  C    G      D       C         G
e-----------------|-----------------|---2-------------|-----------------|
B---1---1---1---0-|---0---0---0---0-|-------3---3---3-|---3---3---------|
G-----------------|-----------------|-----------------|-----------0---0-|
D-----------------|-----------------|-0---0-----------|-----------------|
A-3---3---3---3---|-----------------|---------3---3---|-----------------|
E-----------------|-3---3---3---3---|-----------------|-3---3---3---3---|
                                      you and i....

  D       C         G
e---2-------------|-----------------|---2-------------|-3---------------|
B-------3---3---3-|-------3-------3-|-------3---3---3-|-3---------------|
G-----------------|---0-------0-----|-----------------|-0---------------|
D-0---0-----------|-----------------|-0---0-----------|-0---------------|
A---------3---3---|-----------------|---------3---3---|-2---------------|
E-----------------|-3---3---3---3---|-----------------|-3---------------|
  I can tell...                   yes i can tell that we are going to be friends
Comments