White Stripes - Were Going To Be Friends Chords & Tabs

 

Were Going To Be Friends Chords & Tabs

White Stripes Chords & Tabs

Version: 1 Type: Tab 2 ratings
1 star 2 stars 3 stars 4 stars 5 stars
comments

Were Going To Be Friends Tab



Artist: The White Stripes (White Blood Cells)
Tabed By: Dane Wilson (billabong7686_@hotmail.com)
Song: We're Going To Be Friends.
Standard Tuning EADGBe

This song aswell as Hotel Yorba simply run through the same chords ( G,C and D) this is a really simple song to play and sounds pretty good.

Intro/Verse/Chours

e-----------------------------------------------------------------------------------|-
B-------------------0-------------0------------0-------------0-------------0--------|-
G-----0-----0-------0-----0--------------0-------------0-------------0--------------|-
D-----------------------------------------------------------------------------------|-
A-----------------------------------------------------------------------------------|-
E--3----3------3------3-------3------3------3------3------3-------3------3----------|-

[ Tab from: http://www.guitartabs.cc/tabs/w/white_stripes/were_going_to_be_friends_tab.html ]
e-----------------------------------------------------------------------------------|-
B---------------0-------------0--------------------1-------------1------------------|-
G------0--------------0--------------------0------------0---------------------------|-
D-----------------------------------------------------------------------------------|-
A--------------------------------------3-------3-----3--------3---------------------|-
E---3-----3-------3------3------3---------------------------------------------------|-

e-----------------------------------------------------------------------------------|-
B-------------0-------------0--------------3-------------1-----------0-----------0--|-
G-----0-------------0----------------2-------------0------------0----------0--------|-
D---------------------------------0-----0-------------------------------------------|-
A----------------------------------------------3------3-----------------------------|-
E--3------3------3-------3-----------------------------------3-----3----3-----3-----|-


e-----------------------------------------------------------------------------------|-
B----------3---------------1-----------0-----------0--------------------------------|-
G-----2-------------0------------0-----------0--------------------------------------|-
D--0-----0--------------------------------------------------------------------------|-
A--------------3-------3------------------------------------------------------------|-
E-----------------------------3-----3-----3-----3-----------------------------------|-


Thats it.

Any Comments or suggestions of ways of fixing it up please send them to billabong7686_@hotmail.com Thanks.

*************************************************************************************







Comments