White Stripes - Walking With A Ghost Chords & Tabs

 

Walking With A Ghost Chords & Tabs

White Stripes Chords & Tabs

Version: 1 Type: Tab

Walking With A Ghost Tab

Walking With a Ghost (White stripes version)

Cover by: The White Stripes

Orriginally by: Sara Quinn/Tegan Quinn

Tabbed by:Pine I (ajhv3000@hotmail.com)


Standard Tuning 

Enjoy!


Intro
                                                   
E||------------------------|----------------------|
B||------------------------|----------------------|
G||--11----11----7----7----|--9----9----9----7----|
D||--11----11----7----7----|--9----9----9----7----|
A||--9-----9-----5----5----|--7----7----7----5----| X2
E||------------------------|----------------------|

---
                                                   
"No matter which way you go...."

E||------------------------|----------------------|
B||------------------------|----------------------|
G||--11----11----7----7----|--9----9----9----7----|
D||--11----11----7----7----|--9----9----9----7----|
A||--9-----9-----5----5----|--7----7----7----5----| X4
E||------------------------|----------------------|


"I was walking with a ghost...."
                                                        
E||------------------------|----------------------|
B||------------------------|----------------------|
G||------------------------|----------------------|
D||--11----11----7----7----|--9----9----9----7----| 
A||--11----11----7----7----|--9----9----9----7----| x4
E||--9-----9-----5----5----|--7----7----7----5----|


Then that section repeats------->

Bridge I

E||----------11--12--||
B||--11--12----------||
G||------------------||
D||------------------||
A||------------------|| x8
E||------------------||      
                                             
---

E||------------------------|----------------------|
B||------------------------|----------------------|
G||--11----11----7----7----|--9----9----9----7----|
D||--11----11----7----7----|--9----9----9----7----|
A||--9-----9-----5----5----|--7----7----7----5----| X2
E||------------------------|----------------------|

[ Tab from: http://www.guitartabs.cc/tabs/w/white_stripes/walking_with_a_ghost_tab.html ]
"I was walking with a ghost...."
                                                        
E||------------------------|----------------------|
B||------------------------|----------------------|
G||------------------------|----------------------|
D||--11----11----7----7----|--9----9----9----7----| 
A||--11----11----7----7----|--9----9----9----7----| x4
E||--9-----9-----5----5----|--7----7----7----5----|

                                          
"No matter which way you go...."

E||------------------------|----------------------|
B||------------------------|----------------------|
G||--11----11----7----7----|--9----9----9----7----|
D||--11----11----7----7----|--9----9----9----7----|
A||--9-----9-----5----5----|--7----7----7----5----| X4
E||------------------------|----------------------|

---

Bridge II

Slide up top e string 1 to 12 then

E||----------11--12--|
B||--11--12----------|
G||------------------|
D||------------------|
A||------------------| X4 
E||------------------|

then

E||--10--9---------|
B||---------10--9--|
G||----------------|
D||----------------|
A||----------------|
E||----------------| x4
E||----------------|

And repeat Birdge II twice

---

E||------------------------|----------------------|
B||------------------------|----------------------|
G||--11----11----7----7----|--9----9----9----7----|
D||--11----11----7----7----|--9----9----9----7----|
A||--9-----9-----5----5----|--7----7----7----5----| X2
E||------------------------|----------------------|


"I was walking with a ghost...."
                                                        
E||------------------------|----------------------|
B||------------------------|----------------------|
G||------------------------|----------------------|
D||--11----11----7----7----|--9----9----9----7----| 
A||--11----11----7----7----|--9----9----9----7----| x4
E||--9-----9-----5----5----|--7----7----7----5----|

                                          
"No matter which way you go...."

E||------------------------|----------------------|
B||------------------------|----------------------|
G||--11----11----7----7----|--9----9----9----7----|
D||--11----11----7----7----|--9----9----9----7----|
A||--9-----9-----5----5----|--7----7----7----5----| X4
E||------------------------|----------------------|

very last bit:

"your out of my mind"
E||-------------------------||
B||-------------------------||
G||--11----7----------------||
D||--11----7----11----11----||
A||--9-----5----11----11----||
E||-------------9-----9-----||

and thats it. Hope you found this helpfull!