White Stripes - Though I Hear You Calling I Will Not Answer Chords & Tabs

 

Though I Hear You Calling I Will Not Answer Chords & Tabs

White Stripes Chords & Tabs

Version: 1 Type: Tab 0 ratings
1 star 2 stars 3 stars 4 stars 5 stars
comments

Though I Hear You Calling I Will Not Answer Tab

   
-------------------------------------------------------------------------------
Though I Hear You Calling (I Will Not Answer) - The White Stripes
-------------------------------------------------------------------------------
Tabbed by: DetroitRockCity a.k.a Kyle Landgraf
Email: klstrider@comcast.net

This is a Backside track from the blue orchid single disc.  It is just Jack playing
guitar and singing, and Meg sings at some parts (on Helium).  I have pretty much all
of it except the solo type part near the end.  This tab shows all the main guitar
parts of the song.

Tuning: Standard
[ Tab from: http://www.guitartabs.cc/tabs/w/white_stripes/though_i_hear_you_calling_i_will_not_answer_tab.html ]
 Rhythm:
                      Though I hear you calling...          I will not answer.
e|------------------2--3----3--2--3--2--0-------------------2--3----3--2--3--5--|
B|---1---1---1----------------------------------1---1---1-----------------------|
G|---2---2---2----------------------------------2--2---2-------------------------|
D|---2---2---2----------------------------------2---2---2-----------------------|
A|------------------------------------------------------------------------------|
E|------------------------------------------------------------------------------|

Bridge:
e|-------------------------------------------------|
B|-------------------------------------------------|
G|---------------3--4--------4--4--31-------------|
D|----3--3--3--------------------------------------|
A|----3--3--3--------------------------------------|
E|-------------------------------------------------|

  And I Broke Your Cold...                  And I Broke Your Cold...
e|-------------------------------------------|
B|---1--1--1--1-----1--1-----3--2--3--2--0---|
G|---2--2--2--2-----2--2---------------------|
D|---2--2--2--2-----2--2---------------------|
A|-------------------------------------------|
E|-------------------------------------------|

| /  slide up
| \  slide down
| h  hammer-on
| p  pull-off
| ~  vibrato
| +  harmonic
| x  Mute note
===============================================================================
Comments