White Stripes - The Union Forever Chords & Tabs

 

The Union Forever Chords & Tabs

White Stripes Chords & Tabs

Version: 3 Type: Tab 0 ratings
1 star 2 stars 3 stars 4 stars 5 stars
comments

The Union Forever Tab


e -------0------------------|
B --------0-----------------|
G -----0---0------3-3-------|
D ----2-----2----2-2--------|
A ---2----------3----0------|
E -0------------------------|

repeat for 4 times for intro and then continue playing throughout verses

verse 1:
ya can't be loved, for there is no true love
ya can't be loved, for there is no true love

e --------------------------|
B --------------------------|
G --------------------------|
D -9999-55---8888-2---------|
A -9999-55---8888-2---------|
E -7777-33---6666-0---------|

verse 2:
Sure i seem ok, but you gotta love me
the cost -no man can say but you gotta love me.

e --------------------------|
B --------------------------|
G --------------------------|
D -9999-55---8888-2---------|
A -9999-55---8888-2---------|
E -7777-33---6666-0---------|

verse 3:
well im sorry but im not interested in gold mines, oil wells, shipping or real estate
whut would i liked to have been? every thing you hate.
[ Tab from: http://www.guitartabs.cc/tabs/w/white_stripes/the_union_forever_tab_ver_3.html ]
chorus:
e --------------------------------------------|
B --------------------------------------------|
G --------------------------------------------|
D ----2-2-2--8-8-8---------2-2-2-----8-8-8----|
A ----2-2-2--8-8-8---------2-2-2-----8-8-8----|
E ----0-0-0--6-6-6---------0-0-0-----6-6-6----|

cuz you can't be loved for there is no true love ( X2 )

e --------------------------|
B --------------------------|
G --------------------------|
D -9999-55---8888-2---------|
A -9999-55---8888-2---------|
E -7777-33---6666-0---------|

Extract:

'There is a man, a certain man, and for the poor you may be sure that he'll do all he 
Who is this one, whose favorite son, just by the action has the traction magnets on the 
 Who likes to smoke, enjoys a joke, and wouldn't get a bit upset if he were really broke.
With wealth and fame, he's still the same.  I bet you five were not alive if you don't 
his name...'

e -------0------------------|
B --------0-----------------|
G -----0---0------3-3-------|
D ----2-----2----2-2--------|
A ---2----------3----0------|
E -0------------------------|
 ^
you said the union forever....
you said the union forever
you cried the union forever
but that was untrue girl!

for ya can't be loved

e --------------------------|
B --------------------------|
G --------------------------|
D -9999-55---8888-2---------|
A -9999-55---8888-2---------|
E -7777-33---6666-0---------|
Comments