White Stripes - The Union Forever Chords & Tabs

 

The Union Forever Chords & Tabs

White Stripes Chords & Tabs

Version: 2 Type: Tab 0 ratings
1 star 2 stars 3 stars 4 stars 5 stars
comments

The Union Forever Tab

Theres no timing on the chords (obviously) im sure u can all work it out, i have faith in you!

Intro/Verse:

E|---------0--------|-------------------|
B|-----------0------|-------------------|
G|------0------0----|-------3----3------|
D|-----2---------2--|-----3----3----3---|
A|----2-------------|--1----------------|
E|--0---------------|-------------------|

Bridge:

E|---------------------------|
B|---------------------------|
G|----4-----------3----------|
D|----4-----5-----3-----2----|
A|----2-----5-----1-----2----|
E|----------3-----------0----|
[ Tab from: http://www.guitartabs.cc/tabs/w/white_stripes/the_union_forever_tab_ver_2.html ]
Chorus:       
   
E|--------------|
B|--------------|
G|---------3----|
D|----2----3----|
A|----2----1----|
E|----0---------|

At the end of "there is a man, a certain man.." Jack hits this chord

E|---------|
B|---------|
G|----9----|
D|----9----|
A|----7----|
E|---------|

Verse 2: 

He picks out the chords rather ramdomly in this verse but this is roughly how it goes

E|-----------------|------------------|
B|-----------------|------------------|
G|-----------------|--------3---3-----|
D|-------2---2-----|------3---3---0---|
A|-----2---2---0---|---1--------------|
E|---0-------------|------------------|

heres is the order:

intro/verse x8
bridge
verse x4
bridge
verse x6
chorus x4
bridge
"there is a man, a certain man.."
verse 2 x6
chorus x4
bridge
Comments