White Stripes - The Union Forever Chords & Tabs

 

The Union Forever Chords & Tabs

White Stripes Chords & Tabs

Version: 1 Type: Tab 0 ratings
1 star 2 stars 3 stars 4 stars 5 stars
comments

The Union Forever Tab

   
-------------------------------------------------------------------------------
		the union forever - the white stripes                          
-------------------------------------------------------------------------------

Tabbed by:matthew gidman
Email:spaderman@onetel.com

Tuning:standard

I can't believe that no-ones tabbed this yet - its such a cool song.
It's just this riff for the verses and the intro.After the middle part,
it is played with the same rhythm but picking random notes from whatever chord
the bar is in. Youll know what I mean when you next listen to the song. Whenever
this riff is played, it is always muted.
[ Tab from: http://www.guitartabs.cc/tabs/w/white_stripes/the_union_forever_tab.html ]
   [Emin]              [B]
e|------0---------|----------------|
B|-----0----0-----|----------------|
G|-----0------0---|------3-----3---|
D|----2---------2-|----3-----3---1-|
A|----2-----------|----------------|
E|0---------------|1---------------|
  
This is the chorus. For the intro, play the above part twice, and then play the
last section of the chorus. Then the 1st verse starts...  you can work out the
order of the rest of the song from there. 

e|--------|--------|    ------------------------|
B|--------|--------|    ------------------------|
G|--------|--------|    ------------------------|
D|2--2--2-|8--8--8-|    99-99--55-55--88-88--2--|
A|2--2--2-|8--8--8-|    99-99--55-55--88-88--2--|
E|0--0--0-|6--6--6-| x4 77-77--33-33--66-66--0--|
Comments