White Stripes - The Hardest Button To Button Chords & Tabs

 

The Hardest Button To Button Chords & Tabs

White Stripes Chords & Tabs

Version: 7 Type: Tab 0 ratings
1 star 2 stars 3 stars 4 stars 5 stars
comments

The Hardest Button To Button Tab

Song: The Hardest Button to Button
Album: Elephant [2003]
Words and Music by: The White Stripes
Re-written by: Joey Lavoie [whats_this_dump@hotmail.com]
-------------------------------------------------------------------------------
Single guitar, standard tuning [low to high: E A D G B E].
-------------------------------------------------------------------------------


Intro:
 
e|---------------------------------------------|
B|---------------------------------------------|
G|---2-----------5-----------2-----------5-----|
D|-----2-----------5-----------2-----------5---|
A|-0-----0-----3-----3-----0-----0-----3-----3-|
E|---------------------------------------------|

e|---------------------------------------------|
B|---------------------------------------------|
G|---2-----------5-----------4-----------7-----|
D|-----2-----------5-----------4-----------7---|
A|-0-----0-----3-----3-----2-----2-----5-----5-|
E|---------------------------------------------|



Verse:

e|---------------------------------------------|
B|---------------------------------------------|
G|---2-----------5-----------2-----------5-----|
D|-----2-----------5-----------2-----------5---|
A|-0-----0-----3-----3-----0-----0-----3-----3-|
E|---------------------------------------------|

e|---------------------------------------------|
B|---------------------------------------------|
G|---2-----------5-----------4-----------7-----|
D|-----2-----------5-----------4-----------7---|
A|-0-----0-----3-----3-----2-----2-----5-----5-|
E|---------------------------------------------|



Pre-Chorus:

e|-----------------------------------------------------|
B|---------------------------------------------------0-|
G|---2-----------5-----------4-----------3-----------0-|
D|-----2-----------5-----------4-----------3---------0-|
A|-0-----0-----3-----3-----2-----2-----1-----1---------|
E|-----------------------------------------------0-----|



Chorus:

e|----------------------------------------------------|
B|----------------------------------------------------|
G|--2------2----2-------2-----5-----5------5--------5-|
D|--2------2----2-------2-----5-----5------5--------5-|
A|--0------0----0-------0-----3-----3------3--------3-|
E|-------------------0-------------------------0------|

e|----------------------------------------------------|
B|----------------------------------------------------|
G|--2------2----2-------2-----5-----5------5--------5-|
D|--2------2----2-------2-----5-----5------5--------5-|
A|--0------0----0-------0-----3-----3------3--------3-|
E|-------------------0-------------------------0------|
[ Tab from: http://www.guitartabs.cc/tabs/w/white_stripes/the_hardest_button_to_button_tab_ver_7.html ]
e|----------------------------------------------------|
B|----------------------------------------------------|
G|--2------2----2-------2-----5-----5------5--------5-|
D|--2------2----2-------2-----5-----5------5--------5-|
A|--0------0----0-------0-----3-----3------3--------3-|
E|-------------------0-------------------------0------|

e|----------------------------------------------------|
B|----------------------------------------------------|
G|--4------4----4-------4-----3-----3------3--------3-|
D|--4------4----4-------4-----3-----3------3--------3-|
A|--2------2----2-------2-----1-----1------1--------1-|
E|-------------------0-------------------------0------|



Interlude:

e|----------------------------------------------------|
B|----------------------------------------------------|
G|--2----2----2----2------------5-----5-----5-----5---|
D|--2----2----2----2------------5-----5-----5-----5---|
A|--0----0----0----0------------3-----3-----3-----3---|   
E|----------------------------------------------------|

e|----------------------------------------------------|
B|--4-----4-----4-----4---------3-----3-----3-----3---|
G|--4-----4-----4-----4---------3-----3-----3-----3---|
D|--4-----4-----4-----4---------3-----3-----3-----3---|
A|--2-----2-----2-----2---------1-----1-----1-----1---|
E|----------------------------------------------------|



Interlude 2:

e|----------------------------------------------------|
B|----------------------------------------------------|
G|--2----2----2----2----------------------------------|
D|--2----2----2----2----------------------------------|
A|--0----0----0----0-----------0----0----0----0----0--|   
E|----------------------------------------------------|

e|----------------------------------------------------|
B|----------------------------------------------------|
G|--5----5----5----5----------------------------------|
D|--5----5----5----5----------------------------------|
A|--3----3----3----3-----------3----3----3----3----3--|  
E|----------------------------------------------------|



Outro:

e|----------------------------------------------------|
B|----------------------------------------------------|
G|--2----2----2----2----------------------------------|
D|--2----2----2----2----------------------------------|
A|--0----0----0----0----------------------------------|   
E|----------------------------------------------------|

e|----------------------------------------------------|
B|----------------------------------------------------|
G|--5----5----5----5----------------------------------|
D|--5----5----5----5----------------------------------|
A|--3----3----3----3----------------------------------|  
E|----------------------------------------------------|

----------------------------------------------------------------------------------
Questions? Comments? Hate mail? Send it all over to whats_this_dump@hotmail.com
Comments