White Stripes - The Hardest Button To Button Chords & Tabs

 

White Stripes Chords & Tabs

Version: 1 Type: Tab 2 ratings
1 star 2 stars 3 stars 4 stars 5 stars
comments

The Hardest Button To Button Tab

Artist: The White Stripes
Song: The Hardest Button to Button
Album: Elephant
Tabbed by: Gouge97

Okay, here it is. Another excellent song from the White Stripes.  It uses a standard tuning 
(eBGDAE).  You won't need any extra music instruments but your own guitar to reproduce this one,
as it is the case for most Stripes' songs.  It's really easy to figure out the beat.  Have fun!

Riff One 0:00 - 1:07
e--------------------------------------------------------------------------------------------
B--------------------------------------------------------------------------------------------
G--------------------------------------------------------------------------------------------
D-------------7--------10---------7--------10---------7--------10---------9--------12--------
A---------------7---------10--------7---------10--------7---------10--------9---------12-----
E--5-(X16)--5-----5--8-------8--5-----5--8-------8--5-----5--8-------8--7-----7-10-------10--
 (X2 without lyrics then X2 with lyrics)
[ Tab from: http://www.guitartabs.cc/tabs/w/white_stripes/the_hardest_button_to_button_tab.html ]
Riff Two 1:08 - 1:37
1:08 - 1:21 (First Part) (with lyrics)
e----------------------------------------------------------------------------------------
B----------------------------------------------------------------------------------------
G----------------------------------------------------------------------------------------
D--7-7--7-7-7--10-10--10-10-10------7-7--7-7-7--10-10--10-10--9-9-9-9--9-9--8-8-8-8--8-8-
A--7-7--7-7-7--10-10--10-10-10-(X2)-7-7--7-7-7--10-10--10-10--9-9-9-9--9-9--8-8-8-8--8-8-
E--5-5--5-5-5--8--8---8--8--8-------5-5--5-5-5--8--8---8--8---7-7-7-7--7-7--6-6-6-6--6-6-

1:22 - 1:37 (Second Part) (without lyrics)
e--------------------------------------------
B--------------------------------------------
G--------------------------------------------
D-7-7-7-7--9-9-9-9------8-8-8-8--10-10-10-10-
A-7-7-7-7--9-9-9-9-(X3)-8-8-8-8--10-10-10-10-
E-5-5-5-5--7-7-7-7------6-6-6-6--8--8--8--8--

1:38 - 2:13 Riff One (X1 without lyrics then X1 with lyrics)

2:14 - 2:28 First Part of Riff Two (with Lyrics)

2:29 - 2:45:
e-----------------------
B-----------------------
G-----------------------
D-7-7-7-7--9-9-9-9------
A-7-7-7-7--9-9-9-9-(X4)-
E-5-5-5-5--7-7-7-7------

2:46 - 3:01 Second Part of Riff Two

3:02 - 3:17 :
e--------------------------------------------------------------------------
B--------------------------------------------------------------------------
G--------------------------------------------------------------------------
D------------10-10-10-10-----------7-7-7-7-----------10-10-10-10-----------
A------------10-10-10-10-----------7-7-7-7-----------10-10-10-10-----------
E--5-5-5-5-5-8--8--8--8--5-5-5-5-5-5-5-5-5-5-5-5-5-5-8--8--8--8--5-5-5-5-5-

3:18 - 3:32 :
e-------------------------------
B-------------------------------
G-------------------------------
D-7-7-7-7--9-9-9-9------7-7-7-7-
A-7-7-7-7--9-9-9-9-(X2)-7-7-7-7-
E-5-5-5-5--7-7-7-7------5-5-5-5-

For any comments or correction, please feel free to e-mail me at goexpos@canadiensfan.com
Comments