White Stripes - The Hardest Button To Button Correct Chords & Tabs

 

The Hardest Button To Button Correct Chords & Tabs

White Stripes Chords & Tabs

Version: 1 Type: Tab 4 ratings
1 star 2 stars 3 stars 4 stars 5 stars
comments

The Hardest Button To Button Correct Tab

Arist: The White Stripes
Song: The Hardest Button To Button
Track: 9 
Album: Elephant

Written by - Jared Bridgeman

INTRODUCTION 1

--------------------------------------------------------------------------------------------------------------------------------------------------------------------------
--------------------------------------------------------------------------------------------------------------------------------------------------------------------------
-----------2-------------------------------------------5---------------------------------------2-------------------------------------------5------------------------------
----------------2----------------------------------------------5------------------------------------2----------------------------------------------5----------------------
--0-------------------0-------------------------3-------------------3---------------0-------------------0-------------------------3-------------------3-------------------
--------------------------------------------------------------------------------------------------------------------------------------------------------------------------

--------------------------------------------------------------------------------------------------------------------------------------------------------------------------
--------------------------------------------------------------------------------------------------------------------------------------------------------------------------
-----------2-------------------------------------------5----------------------------------------4-------------------------------------------7-----------------------------
----------------2----------------------------------------------5-------------------------------------4----------------------------------------------7---------------------
--0-------------------0-------------------------3-------------------3------------------2-------------------2-------------------------5-------------------5----------------
--------------------------------------------------------------------------------------------------------------------------------------------------------------------------

INTRODUCTION 2
[ Tab from: http://www.guitartabs.cc/tabs/w/white_stripes/the_hardest_button_to_button_correct_tab.html ]
----------------------------------------------------------------------------------------
----------------------------------------------------------------------------------------
----------------------------------------------------------------------------------------
----7-----7-----7-----7-------10------10----10----10------------------------------------		Play
----7-----7-----7-----7-------10------10----10----10------------------------------------		this 3
----5-----5-----5-----5-------8--------8-----8-----8------------------------------------		times

VERSE
-----------------------------------------------------------------------------------------
-----------------------------------------------------------------------------------------
-----------------------------------------------------------------------------------------
------9-----9------9-----9--------12---12----12----12------------------------------------
------9-----9------9-----9--------12---12----12----12------------------------------------
------7-----7------7-----7--------10---10----10----10------------------------------------

CHORUS

-------------------------------------------------------------------------------------
-------------------------------------------------------------------------------------		play this	
-------------------------------------------------------------------------------------		3 times
---7-----7-----7----7-------10-----10----10----10------------------------------------
---7-----7-----7----7-------10-----10----10----10------------------------------------
---5-----5-----5----5--------8------8-----8-----8------------------------------------

VERSE again
---------------------------------------------------------------------------------------
---------------------------------------------------------------------------------------
---------------------------------------------------------------------------------------
-----9-----9----9----9------12-----12-----12------12-----------------------------------
-----9-----9----9----9------12-----12-----12------12-----------------------------------
-----7-----7----7----7------10-----10-----10------10-----------------------------------

play CHORUS for OUTRO

Listen to the song for when to play each part coz im not too sure on it
Comments