White Stripes - Slicker Drips Chords & Tabs

 

Slicker Drips Chords & Tabs

White Stripes Chords & Tabs

Version: 1 Type: Tab 0 ratings
1 star 2 stars 3 stars 4 stars 5 stars
comments

Slicker Drips Tab

   
-------------------------------------------------------------------------------
			     Slicker drips -  white stripes
-------------------------------------------------------------------------------
Tabbed by:andrew hall
Email:Andree@ntlworld.com

Tuning:standard

e|--------------------------------------------------------------------------------------|
B|--------------------------------------------------------------------------------------|
G|--------------------------------------------------------------------------------------|
D|--8----7----5----x-x---x--------------------------------------------------------------|
A|--8----7----5----x-x---x-----x11------------------------------------------------------|
E|--6----5----3----x-x---x--------------------------------------------------------------|
[ Tab from: http://www.guitartabs.cc/tabs/w/white_stripes/slicker_drips_tab.html ]
e|----------------------------------------|
B|----------------------------------------|
G|----------------------------------------|
D|---5-xx-5-xx-5-xx-5-xx-5-xx-5-xx-5-5-5--|
A|---5-xx-5-xx-5-xx-5-xx-5-xx-5-xx-5-5-5--|
E|---3-xx-3-xx-3-xx-3-xx-3-xx-3-xx-3-3-3--|

e|---1-/-3-2-3-2-3-------------------------33333--3--------------------------|
B|------------------------------------------------3--------------------------|
G|------------------------------3----3----------------5---h3-----5---h3------|
D|-----------------5----h3---5-------------------------------h5----------h5--|
A|---------------------------------------------------------------------------|
E|---------------------------------------------------------------------------|

e|-----------------------------------------|
B|-----------------------------------------|
G|-----------------------------------------|
D|--5--5--5----8----7----5-xx--------------|
A|--5--5--5----8----7----5-xx----speed up--|
E|--3--3--3----6----5----3-xx--------------|

| /  slide up
| \  slide down
| h  hammer-on
| p  pull-off
| ~  vibrato
| +  harmonic
| x  Mute note
Comments