White Stripes - Seven Nation Army Chords & Tabs

 

Seven Nation Army Chords & Tabs

White Stripes Chords & Tabs

Version: 3 Type: Tab 0 ratings
1 star 2 stars 3 stars 4 stars 5 stars
comments

Seven Nation Army Tab

-------------------------------------------------------------------------------
			     Seven Nation Army - Whtie Stripes
-------------------------------------------------------------------------------

Tabbed by: Dosvadonia
Email: dosvadonia@mindless.com
Site: www31.brinkster.com/dosvadonia
Tabbed on: Feb. 23 '03
Tuning:  (EADGBE)

Notes: This album has not come out yet (Elephant)  But it will be good when it does.
As for the verses... its a bass part, but I believe it works alright on dropped A tuning,
or just take the bass notes of the power chords.  The slides are not tabbed, but there
are alot.
For now Ill tab the chorus, not the high layering part though.
E-mail me with any changes, comments, suggestions.
Enjoy!

Pre-Chorus
e|---------------------------------------------------------------------------|
B|---------------------------------------------------------------------------|
G|---------------------------------------------------------------------------|
D|--------5----------7-------------------------------------------------------|
A|--------5---(x8)---7--(x8)-------------------------------------------------|
E|--------3----------5-------------------------------------------------------|
[ Tab from: http://www.guitartabs.cc/tabs/w/white_stripes/seven_nation_army_tab_ver_3.html ]
Chorus
e|---------------------------------------------------------------------------|
B|---------------------------------------------------------------------------|
G|--------9--9--12--9--7--5--4-----------------------------------------------|
D|--------9--9--12--9--7--5--4-----(x1)--------------------------------------|
A|--------7--7--10--7--5--3--2-----------------------------------------------|
E|---------------------------------------------------------------------------|

e|---------------------------------------------------------------------------|
B|---------------------------------------------------------------------------|
G|--------9--9--12--9--7--5--3--5--4-----------------------------------------|
D|--------9--9--12--9--7--5--3--5--4-(x1)------------------------------------|
A|--------7--7--10--7--5--3--5--3--2-----------------------------------------|
E|---------------------------------------------------------------------------|

Post Chorus
e|---------------------------------------------------------------------------|
B|---------------------------------------------------------------------------|
G|---------------------------------------------------------------------------|
D|------5------------7-------------------------------------------------------|
A|------5---(x8)-----7----(x8)-----------------------------------------------|
E|------3------------5-------------------------------------------------------|
Comments