White Stripes - Seven Nation Army Chords & Tabs

 

Seven Nation Army Chords & Tabs

White Stripes Chords & Tabs

Version: 2 Type: Tab 2 ratings
1 star 2 stars 3 stars 4 stars 5 stars
comments

Seven Nation Army Tab


i got these tabs when i was one day playin my guitar and desided to learn a new song. i dont know if they are 
100% right hopefully there  close.




e-------------------------------=-----------|
C#------------------------------------------|
A-------------------------------------------|
E-------------------------------------------|
A---7----7----10----7----5----3----2--------|
E-------------------------------------------|
8x

pre-chours :

e-------------------------------------------|
C#-----------------------0-0-0-0--0-0-0-0---|
A------------------------0-0-0-0--0-0-0-0---|
E-0-0--------------------0-0-0-0--0-0-0-0---|
A-0-0--5-5-5-5--5-5-5-5--0-0-0-0--0-0-0-0---|
E-0-0--3-3-3-3--3-3-3-3--0-0-0-0--0-0-0-0---|

chours:

e--------------------------------------|
C#---7--7--/--10--7--5--3--2-----------|
A----7--7--/--10--7--5--3--2-----------|
E----7--7--/--10--7--5--3--2-----------|
A----7--7--/--10--7--5--3--2-----------|
E--------------------------------------|

e-------------------------------=-----------|
C#--7-7--/--10--7--5--3--/-5-/-3--2--0------|
A---7-7--/--10--7--5--3--/-5-/-3--2--0------|
E---7-7--/--10--7--5--3--/-5-/-3--2--0------|
A---7-7--/--10--7--5--3--/-5-/-3--2--0------|
E-------------------------------------------|

Riff 2(after chours): 

e-------------------------------------------|
C#-----------------------0-0-0-0--0-0-0-0---|
A------------------------0-0-0-0--0-0-0-0---|
E------------------------0-0-0-0--0-0-0-0---|
A------5-5-5-5--5-5-5-5--0-0-0-0--0-0-0-0---|
E------3-3-3-3--3-3-3-3--0-0-0-0--0-0-0-0---|

Guitar solo:
[ Tab from: http://www.guitartabs.cc/tabs/w/white_stripes/seven_nation_army_tab_ver_2.html ]
e----------------------------------------------------|
C#---------------------------------------------------|
A---------------10--9--9/0------------10--12--10-----|
E--12-12-12-12--------------------12-----------------|
A-----------------------------12---------------------|
E-----------------------------12---------------------|

e----------------------------------------------------------|
C#---------------------------------------------------------|
A---10/12--10--9--0-----------------10------10/9--9--------|
E--------------------/12-12-12--12------12-----------------|
A--------------------/12-12-12-----------------------------|
E----------------------------------------------------------|

e-------------------------------=----------12--12--12--15--12--12--|
C#-----------------------------------------------------------------|
A-----------10--12--10--10--12--10--9--0---------------------------|
E--/12--12---------------------------------------------------------|
A--/12--12---------------------------------------------------------|
E--/12-------------------------------------------------------------|

e---14--/12--12/15--17--15--15/17--15--14--0-|
C#-------------------------------------------|
A--------------------------------------------|
E--------------------------------------------|
A--------------------------------------------|
E--------------------------------------------|

e---12--12--12/14--12--12--17--14--12--12--12/14-12--12-|
C#------------------------------------------------------|
A-------------------------------------------------------|
E-------------------------------------------------------|
A-------------------------------------------------------|
E-------------------------------------------------------|

e---14--12-----------------------------------------------|
C#----------11--10----/10----/12----12\------------------|
A-------------------0-/10-8x-/12-6x-12\------------------|
E---------------------/10----/12----12\------------------|
A----------------------------/12----12\=-----------------|
E-----------------------------------12\------------------|

Comments