White Stripes - Seven Nation Army Chords & Tabs

 

Seven Nation Army Chords & Tabs

White Stripes Chords & Tabs

Version: 15 Type: Tab 0 ratings
1 star 2 stars 3 stars 4 stars 5 stars
comments

Seven Nation Army Tab

   
Tuning E A E A C# E

Intro/Verse              Chorus               Pre/Post Chorus
------------------ ------------------------ -------------------0-   
------------------ ---/7--/10--7--5--3--2-- -------------------0-      
------------------ ---/7--/10--7--5--3--2-- -------------------0-    
------------------ ---/7--/10--7--5--3--2-- -------------------0-      
---7-7-10-7-5-3-2- ---/7--/10--7--5--3--2-- ---5-5-5-5-5-5-5-5-0-     
------------------ ---/7--/10--7--5--3--2-- ---3-3-3-3-3-3-3-3-0-
Solo
-----------------------------------------------------------------
-----------------------------------------------------------------
---------------------10\9-(9)\0--------10-12-10-10/12-10-9-0-----
---12-12-12-(12)-12\----------------12-----------------------/12-
--------------------------------/12--------------------------/12-
--------------------------------/12------------------------------
[ Tab from: http://www.guitartabs.cc/tabs/w/white_stripes/seven_nation_army_tab_ver_15.html ]
--------------------------------------------------------/12-12---
-----------------------------------------------------------------
----------10----/10\9-(9)\--------10-12-10-10/12-10-9-0----------
-12-12-12----12------------/12-12--------------------------------
-12-12---------------------/12-12--------------------------------
---------------------------/12-----------------------------------

-12/15-12-12/15\14-(14)\0-/12-12/15-17-15-15/17-15-14-(14)\-0----
------------------------0----------------------------------------
-----------------------------------------------------------------
-----------------------------------------------------------------
-----------------------------------------------------------------
-----------------------------------------------------------------

-/12-12-12/14-/12-12-/17\14-(14)-0-/12-12-12/14-12-(12)-12-/14---
-----------------------------------------------------------------
-----------------------------------------------------------------
-----------------------------------------------------------------
-----------------------------------------------------------------
-----------------------------------------------------------------

-12-(12)---------------------------------------------------------
---------11-10-(10)\---/10---/12---12\---------------------------
---------------------0-/10---/12---12\---------------------------
-----------------------/10---/12---12\---------------------------
-----------------------------/12---12\---------------------------
-----------------------------------12\---------------------------
Comments