White Stripes - Seven Nation Army Chords & Tabs

 

Seven Nation Army Chords & Tabs

White Stripes Chords & Tabs

Version: 1 Type: Tab 6 ratings
1 star 2 stars 3 stars 4 stars 5 stars
comments

Seven Nation Army Tab

#----------------------------------PLEASE NOTE--------------------------------#
#This file is the author's own work and represents their interpretation of the#
#song. You may only use this file for private study, scholarship, or research.#
#-----------------------------------------------------------------------------#
#-- File created with Instab - http://www.pconline.com/~smcarey/instab.html --#
#-----------------------------------------------------------------------------#

Author/Artist: White Stripes
Title: Seven Nation Army
Album: Elephant
Transcribed by: Lee Savage
Email: savage@leemichael.freeserve.co.uk

Email me if this is inaccurate. Top song by a top band.
[ Tab from: http://www.guitartabs.cc/tabs/w/white_stripes/seven_nation_army_tab.html ]
Play intro palm muted for first few bars.
   
Main Riff   (Alternate Main Riff)
-------------------|-----------------------|---------------------
-------------------|-----------------------|---------------------
-------------------|-----------------------|---------------------
-------------------|-----------------------|---------------------
-7--7-10-7--5-3--2-|-7-7-7-10-7--5-3--2----|-7--7-10-7-----------
-------------------|-----------------------|------------10-8--7-
                                                                              
Pre- and Post-Chorus  (Alternate Pre- Post-Chorus)
-x-------x-----------|-3-------5---------
-x-------x-----------|-5-------7---------
-4-(x8)--6-(x8)------|-5-(x8)--7-(x8)----
-5-------7-----------|-5-------7---------
-5-------7-----------|-3-------5---------
-3-------5-----------|-------------------
                                                                              
Chorus (Play Twice) with quite a bit of gain
-7--7-10-7-5-3--2----|-7-7-7-10-7-5-3/5\3-2-|--
-9--9-12-9-7-5--4----|-9-9-9-12-9-7-5/7\5-4-|--
-9--9-12-9-7-5--4----|-9-9-9-12-9-7-5/7\5-4-|--
-9--9-12-9-7-5--4----|-9-9-9-12-9-7-5/7\5-4-|--
-7--7-10-7-5-3--2----|-7-7-7-10-7-5-3/5\3-2-|--
---------------------|----------------------|--
                                                                              
Solo (with a bit of gain, same as chorus)
---------------------------|-----------------------------|-
-5v-8-7--5v-8-10/8-8-7vv---|-5v-5-8/10-8-10vv-10\8-8-7vv-|-
---------------------------|-----------------------------|-
---------------------------|-----------------------------|-
---------------------------|-----------------------------|-
---------------------------|-----------------------------|-
                                                                              

-----------------------|------------------------------
-5v-5-8-5-5-8/10-8-7vv-|-5v-5-8/10-8-10vv-10\8-8-7vv--
-----------------------|------------------------------
-----------------------|------------------------------
-----------------------|------------------------------
-----------------------|------------------------------
                                                                              

--------------------------|-----------------------------------
-17v--17-20b22r20-20v-19vv|17v-17-17-20/22-20-22-22vv/20-19v--
--------------------------|-----------------------------------
--------------------------|-----------------------------------
--------------------------|-----------------------------------
--------------------------|-----------------------------------
                                                                              

---------------------------|--------------------------------
-17v--17-20b22r20-20v-19vv-|-17v-17-17-20-22-20-22vv/8-7vv--
---------------------------|--------------------------------
---------------------------|--------------------------------
---------------------------|--------------------------------
---------------------------|--------------------------------
Comments