White Stripes - Seven Nation Army Proper Chords & Tabs

 

Seven Nation Army Proper Chords & Tabs

White Stripes Chords & Tabs

Version: 1 Type: Tab 22 ratings
1 star 2 stars 3 stars 4 stars 5 stars
comments

Seven Nation Army Proper Tab

White Stripes – Seven Nation Army

It may sound like a hard song but its pretty simple. For the begining
bit, i like to add in a bottom E to make it sound more like the bass
 guitar, but you don't need to do that.

Try to play this on an amp with a bit of distortion. It sounds Brill!!



Intro - Played All The Way Through Except For Power Chord + Chorus

--------------------------------------------------------------------
--------------------------------------------------------------------
--------------------------------------------------------------------
--------------------------------------------------------------------
---7------7----10----7----------------------------------------------
---0----------------------10----8-------7---------------------------



Power Chord Bit (Just Before And After Chorus)
[ Tab from: http://www.guitartabs.cc/tabs/w/white_stripes/seven_nation_army_proper_tab.html ]
--------------------------------------------------------------------
--------------------------------------------------------------------
--------------------------------------------------------------------
--------------------------------------------------------------------
-----5-5-5-5-5-5-5-5-7-7-7-7-7-7-7-7--------------------------------
-----3-3-3-3-3-3-3-3-5-5-5-5-5-5-5-5--------------------------------



Chorus

--------------------------------------------------------------------
--------------------------------------------------------------------
----9------9----12----9----7----5------4----------------------------
----9------9----12----9----7----5------4----------------------------
----7------7----10----7----5----3------2----------------------------
--------------------------------------------------------------------


--------------------------------------------------------------------
--------------------------------------------------------------------
----9------9----12----9----7----5--7--5--4--------------------------
----9------9----12----9----7----5--7--5--4--------------------------
----7------7----10----7----5----3--5—-3--2--------------------------
--------------------------------------------------------------------

play as many times as it is on that chorus

and that’s all there is to it!
Comments