White Stripes - Seven Nation Army Chords & Tabs

 

Seven Nation Army Chords & Tabs

White Stripes Chords & Tabs

Version: 8 Type: Bass Tab 0 ratings
1 star 2 stars 3 stars 4 stars 5 stars
comments

Seven Nation Army Bass Tab

Seven Nation Army 
The White Stripes     Tabed by bassmanPreston
Elephant

Verse

-----------------------------------------
-----------------------------------------
---8--8---11---8-------------------------
-----------------11---10--8--------------

pre-chorus

-----------------------------------------
-----------------------------------------
---0-0-0-0-0-0-0-0--2-2-2-2-2-2-2-2------
-----------------------------------------


Chorus
[ Tab from: http://www.guitartabs.cc/tabs/w/white_stripes/seven_nation_army_btab_ver_8.html ]
-----------------------------------------
-----------------------------------------
--9--9---12---9---7---5--4---------------
-----------------------------------------

-----------------------------------------
-----------------------------------------
--9--9--12--9---7--5--7--5--4------------
-----------------------------------------


You play the chorus during the solo also, if you have any questions email me at
Preston_50@hotmail.com. Hope you enjoy the tap and keep rockin'.
Comments