White Stripes - Seven Nation Army Chords & Tabs

 

Seven Nation Army Chords & Tabs

White Stripes Chords & Tabs

Version: 5 Type: Bass Tab 0 ratings
1 star 2 stars 3 stars 4 stars 5 stars
comments

Seven Nation Army Bass Tab

   
verse
G----------------- just repeat as 
D------5---------- you hear on the song
A-7--7---7--5-----
E-------------8--7

[ Tab from: http://www.guitartabs.cc/tabs/w/white_stripes/seven_nation_army_btab_ver_5.html ]
chorus
G------------------------------------------  
D------5-----------------5----------------- 
A-7--7---7--5-------7--7----7--5----5------
E-------------8--7----------------8----8--7~
just keep playing as you hear it 

bridge
G------------------
D------------------
A------------------
E-33333333355555555

thats pretty much the entire song, 
its not that hard, you just have to keep in time, simple
Comments