White Stripes - Seven Nation Army Chords & Tabs

 

Seven Nation Army Chords & Tabs

White Stripes Chords & Tabs

Version: 1 Type: Bass Tab 0 ratings
1 star 2 stars 3 stars 4 stars 5 stars
comments

Seven Nation Army Bass Tab

   
-------------------------------------------------------------------------------
                             7 Nation Army - White Stripes
-------------------------------------------------------------------------------

Tabbed By: Bass Zapatista 
 
Tuning:Standard(EADG)
[ Tab from: http://www.guitartabs.cc/tabs/w/white_stripes/seven_nation_army_btab.html ]
This song is played with a stand up bass on the CD but it sounds almost
as good on a regular bass guitar. 

Verse (a lot of times)

G|------0------------|
D|-2--2---2-0--------|
A|------------3---2--|
E|-------------------|
					
			Chorus (a few times)
G|------0-----------------0-----------------|
D|-2--2---2-0--------2--2---2-0---0---------|
A|------------3---2-------------3---3---2---|
E|------------------------------------------|
Comments