White Stripes - Screwdriver Chords & Tabs

 

Screwdriver Chords & Tabs

White Stripes Chords & Tabs

Version: 1 Type: Tab 1 rating
1 star 2 stars 3 stars 4 stars 5 stars
comments

Screwdriver Tab

   
Artist: The White Stripes
Track: Screwdriver
Tabbed by: Phreez (deep_phreez@yahoo.com)

STANDARD TUNING (EADGBe)



/: Slide down
\: Slide up
b: Bend
.: Play the note and kill it fast with your palm

INTRO
e|----------------------------------------------------------------|-------------------------|
B|-------------------13b15-13-15-13-15b17-15-13-15-13-------------|-------------------------|
G|-----------------------14--------------------------14-(times 2)-|-------------------------|
D|--7-7-7-7/5-5\7-7-----------------------------------------------|-7-7-7-7/5-5\7-7--7-7-7--|
A|--7-7-7-7/5-5\7-7-----------------------------------------------|-7-7-7-7/5-5\7-7--7-7-7--|
E|--5-5-5-5/3-3\5-5-----------------------------------------------|-5-5-5-5/3-3\5-5--5-5-5--|

CHORUS/VERSE
e|------------------|
B|------------------|
G|------------------| x5
D|--7~-7-7/5~-5-5\--|
A|--7~-7-7/5~-5-5\--|
E|--5~-5-5/3~-3-3\--|

e|----------------------------------------------------------------|-------------------------|
B|-------------------13b15-13-15-13-15b17-15-13-15-13-------------|-------------------------|
G|-----------------------14--------------------------14-(times 2)-|-------------------------|
D|--7-7-7-7/5-5\7-7-----------------------------------------------|-7-7-7-7/5-5\7-7--7-7-7--|
A|--7-7-7-7/5-5\7-7-----------------------------------------------|-7-7-7-7/5-5\7-7--7-7-7--|
E|--5-5-5-5/3-3\5-5-----------------------------------------------|-5-5-5-5/3-3\5-5--5-5-5--|

CHORUS/VERSE
e|------------------|
B|------------------|
G|------------------| x5
D|--7~-7-7/5~-5-5\--|
A|--7~-7-7/5~-5-5\--|
E|--5~-5-5/3~-3-3\--|
[ Tab from: http://www.guitartabs.cc/tabs/w/white_stripes/screwdriver_tab.html ]
INTERLUDE
e|-------------------------------------------------------------------------------------------------------------------------|
B|------------------------------------13b16-------15b17-15-13-15-13----------------------13b15-13-15-13-15b17-15-13-15-13--|
G|-----------------------------------------------------------------14------------------------14--------------------------14|
D|--7-----------7-7-7---7-7-7---7-7-7-------7-7-7-----------------------7-7-7-7/5-5\7-7------------------------------------|
A|--7 (times 8)-7-7-7---7-7-7---7-7-7-------7-7-7-----------------------7-7-7-7/5-5\7-7------------------------------------|
E|--5-----------5-5-5---5-5-5---5-5-5-------5-5-5-----------------------5-5-5-5/3-3\5-5------------------------------------|
Palm Mute      . . .     . . .   . . .       . . .

e|-------------------------|
B|-------------------------|
G|-------------------------|
D|-7-7-7-7/5-5\7-7--7-7-7--|
A|-7-7-7-7/5-5\7-7--7-7-7--|
E|-5-5-5-5/3-3\5-5--5-5-5--|

CHORUS/VERSE
e|------------------|
B|------------------|
G|------------------| x5
D|--7~-7-7/5~-5-5\--|
A|--7~-7-7/5~-5-5\--|
E|--5~-5-5/3~-3-3\--|

OUTRO
e|-------------------------|---------------------------------------------------------------|-------------------|
B|-------------------------|-------------------13b15-13-15-13-15b17-15-13-15-13------------|-------------------|
G|-------------------------|-----------------------14--------------------------14-(times 2)|-------------------|
D|--7----------------------|--7-7-7-7/5-5\7-7----------------------------------------------|-7-7-7--7-7-7--7~--|
A|--7-(Repeat Many times)--|--7-7-7-7/5-5\7-7----------------------------------------------|-7-7-7--7-7-7--7~--|
E|--5----------------------|--5-5-5-5/3-3\5-5----------------------------------------------|-5-5-5--5-5-5--5~--|
Palm Mute                                                                                     . . .  . . .  

Another quality song from the white stripes
Comments