White Stripes - Same Boy Youve Always Known Chords & Tabs

 

Same Boy Youve Always Known Chords & Tabs

White Stripes Chords & Tabs

Version: 1 Type: Tab 0 ratings
1 star 2 stars 3 stars 4 stars 5 stars
comments

Same Boy Youve Always Known Tab

   
-------------------------------------------------------------------------------
	        Same Boy You've Always Known - The White Stripes
-------------------------------------------------------------------------------

By:  AM

INTRO (2x)
e|------------------------0--------------------------------------------------|
B|------------------------3--------------------------------------------------|
G|------------------------2--------------------------------------------------|
D|-----5/7--7-----0h2--0-----------------------------------------------------|
A|-------------0-------------------------------------------------------------|
E|---------------------------------------------------------------------------|


VERSE
A
you fell down of course and then you 
D                            A      D
got up of course and started over
          A                D
forgot my name of course
                   A          D
then you started to remember

[ Tab from: http://www.guitartabs.cc/tabs/w/white_stripes/same_boy_youve_always_known_tab.html ]
CHORUS
C                          G                    A       G A
pretty tough to think about the beggining of december
C                           G                        
pretty tough to think about     
                       A           D
pretty tough to think about  yeah yeah pretty tough to think about

A
you're looking down again and then you look me over
D                                             A      D
we're laying down again on a blanket in the clover

the same boy you've always known well I guess I haven't grown
                                                            A     
the say boy you've always known the say boy you've always known


BRIDGE
G5
think of what the past did it could've lasted
                   A
so put it in your basket
G5
i hope you know a strong man who can lend you a hand
E
lowering my casket

(The solo i wasn't sure about.  I can catch that it has 5/7 7 in it from the
intro, and a few hammer-on-pull-offs.  Just listen and try and figure it out)

A
i thought this is just today and soon you'll be returning
D
the coldest blue ocean water cannot stop my heard and mind from burning
                                                        A    D
everyone who's in the know says that's exactly how it goes
 D                                                            E
and if there's anything good about me i'm the only one who knows
Comments