White Stripes - Outlaw Blues Chords & Tabs

 

Outlaw Blues Chords & Tabs

White Stripes Chords & Tabs

Version: 1 Type: Tab 0 ratings
1 star 2 stars 3 stars 4 stars 5 stars
comments

Outlaw Blues Tab

this is from blackpool lights.
standard tuning
basic blues structure in E

the riff:
|---------------------------------------------------|
|---------------------------------------------------|
|---------------------------------------------------|
|---------------------------------------------------|
|--2-2/4-4-5-5-4-5-4--------------------------------|
|--0-0-0-0-0-0-0-0-0--------------------------------| X4

|---------------------------------------------------|
|---------------------------------------------------|
|---------------------------------------------------|
|--2-2/4-4-5-5-4-5-4--------------------------------|
|--0-0-0-0-0-0-0-0-0--------------------------------| X4
|---------------------------------------------------|

|-----------------------------------------------------|
|-----------------------------------------------------|
|-----------------------------------------------------|
|-----------------------------------------------------|
|--2-2/4-4-5-5-4-5-4----------------------------------|
|--0-0-0-0-0-0-0-0-0----------------------------------|     X2
[ Tab from: http://www.guitartabs.cc/tabs/w/white_stripes/outlaw_blues_tab.html ]
|------------------0-0-0-0-------------------------|
|--4-4-4-4-4-4-4-4-2-2-2-2----0----0---------------|
|--4-4-4-4-4-4-4-4-2-2-2-2----0----0---------------|
|--4-4-4-4-4-4-4-4-2-2-2-2----0----0---------------|
|--2-2-2-2-2-2-2-2-0-0-0-0----2----2---------------|
|---------------------------3b--3b-----------------|

|---------------------4-----------------------------|
|---------------------4-----------------------------|
|---------------------4-----------------------------|
|---------------------4-----------------------------|
|--2-2/4-4-5-5-4-5-4--2-----------------------------|
|--0-0-0-0-0-0-0-0-0-------3b-0---------------------|

the solo:
im not sure about it but i think its played on box shape 4 in the key of E

alot of it goes a bit like this:

|-------------------------------------------------------|
|-------------------------------------------------------|
|-----------10b--10b--8---------------------------------|
|------------------------9------------------------------|
|-------------------------------------------------------|
|-------------------------------------------------------|

i usually just make it up when i play it
Comments