White Stripes - Offend In Every Way Chords & Tabs

 

Offend In Every Way Chords & Tabs

White Stripes Chords & Tabs

Version: 8 Type: Tab 0 ratings
1 star 2 stars 3 stars 4 stars 5 stars
comments

Offend In Every Way Tab

Tabbed by: Zero
Song: offend in every way 
Album: White blood cells
Tuning: standard

I know this is an older song but i've known it for awhile and decided to tab it
just for the fun of it. It's really fun and easy. The song is cool too. i'm 99.9%
sure this is right. i've played along with the song a google times (alot)
and it all sounds right.

intro:
-------------------------------------------------------------------------------
-------------------------------------------------------------------------------
-------------------------------------------------------------------------------
-------------------5--5-----------------3--3-----------------5-5----5--3--5--7-
---5--3--1--0------5--5-----------------3--3--3--1--3--5-----5-5---------------
---------------3---3--3--3--5--6--8--1--1--1--------------3--3-3---------------

-------------------------------------------------------------------------------
-------------------------------------------------------------------------------
----7--7-----------------------------------------------------------------------
----7--7--8--7--5--3--5--5--5-----------------10-----------------3-------------
-5--5--5-----------------5--5-----------------10-----------------3-------------
-------------------------3--3--3--5--6--7--8--8---8--6--5--3--1--1--1--3--5--6-

---------
---------
---------
-5-------
-5-------
-3-------
[ Tab from: http://www.guitartabs.cc/tabs/w/white_stripes/offend_in_every_way_tab_ver_8.html ]
verse
-----------------------------------------------------------------------------
-----------------------------------------------------------------------------
----------------------------------------------7-x-7--7-7--7------------------
-5-x-5--5-5--5--3-x-3--3-3--3--5-x-5--5-5--5--7-x-7--7-7--7----5-x-5--5-5--5-
-5-x-5--5-5--5--3-x-3--3-3--3--5-x-5--5-5--5--5-x-5--5-5--5----5-x-5--5-5--5-
-3-x-3--3-3--3--1-x-1--1-1--1--3-x-3--3-3--3-------------------3-x-3--3-3--3-
        pm-]           pm-]           pm-]           pm-]             pm-]

-----------------------------------------------------
-----------------------------------------------------
-5-x-5--5-5--5---------------------------------------
-5-x-5--5-5--5--3-x-3--3-3--3--5-x-5-----------------
-3-x-3--3-3--3--3-x-3--3-3--3--5-x-5-----------------
----------------1-x-1--1-1--1--3-x-3-----------------
        pm-]           pm-]
 
chorus

-----------------------------------------------------------------------------
-----------------------------------------------------------------------------
------------------------------------------------------------------------7-7--
--------------3-----------3-3-----------5-5------------7-7----5-3-5-7---7-7--
--5-3-1-5-1---3-----------3-3-3-1-3-5---5-5--5-3-5-7---7-7------------5-5-5--
------------3-1-3-5-6-8-1-1-1---------3-3-3----------5-5-5-------------------

----------------------------------------------------------
----------------------------------------------------------
----------------------------------------------------------
-8-8-7-5-3-5-7-5-----------10-------------3---------5-----
---------------------------10-----5*------3---------5-----
-----------------3-5-6-7-8-8--8-7---3-1-1-1-3-5-6-5-3-----

(*note, the 5 that is marked is played in only the first chorus, in the other
choruses it is on the string below it)

Another thing, the song ends on an intro and the 3 last power chords
are picked instead of strummed.)


order:
intro x1
verse x1
chorus x1
verse x1
chorus x1
verse x1
chorus x1
intro x1

there it is

if it sucks e-mail me at white_weezer_stripes@hotmail.com and tell me what is wrong.
Comments