White Stripes - Offend In Every Way Chords & Tabs

 

Offend In Every Way Chords & Tabs

White Stripes Chords & Tabs

Version: 7 Type: Tab 0 ratings
1 star 2 stars 3 stars 4 stars 5 stars
comments

Offend In Every Way Tab

e|-------------------------------------------------------------------------------------
b|------------(0)-------------------------------------3--------------------------------
g|-------------------------------------0----0---0-2---2--2-2h3-2-0---0---(0)-----------
d|-0---------------------------------0--------3-----0-0------------3-------------------
a|---3-1-0---5------0-1-3---3--3-1-3-----5-----------------------------5------0-1-2-3--
E|---------3-3----3-------1-1------------3-----------------------------3----3----------

e|---------------------------------
b|--(0)----------------------------
g|---------------------------4-----
d|-5-------------------------5-----
a|-3---3-1-0-----3------0-1--5-----
E|-----------3-1-1--1-3------3-----

well...thats how I play it, and it sounds good to me...
[ Tab from: http://www.guitartabs.cc/tabs/w/white_stripes/offend_in_every_way_tab_ver_7.html ]
Comments