White Stripes - Offend In Every Way Chords & Tabs

 

Offend In Every Way Chords & Tabs

White Stripes Chords & Tabs

Version: 4 Type: Tab 0 ratings
1 star 2 stars 3 stars 4 stars 5 stars
comments

Offend In Every Way Tab

   
The White Stripes
Offend In Every Way
Tabbed by: Jason
E-mail questions or comments to: secondofall@hotmail.com
Check out http://heavydistortion.deviantart.com!

This is an awesome song off of the White Stripes album White Blood Cells. I wasn't seeing tabs 
for this song around so I decided to write one. This is my first tab, but I've had plenty of 
experience looking at and learning tabs. I'm 98% sure this is the right way to play it, but hey, 
mistakes happen. Oh, and on the 7h8 part in the intro, it sounds cooler if you bend down on 7. 
It pulls off the same sound. Listen to the track to get the right rythym and strum pattern. 
Ok, enough talk. Play.

Standard Tuning (E,A,D,G,B,E)
PM = Palm Mute
[ Tab from: http://www.guitartabs.cc/tabs/w/white_stripes/offend_in_every_way_tab_ver_4.html ]
Intro:
E----------------------------------------------------------------------------------------------------
B----------------------------------------------------------------------------------------------------
G----------------------------------------------7-----------------------------------------------------
D-----------5-----------3--------5-5-5-3-5-7-0-7-7h8-7-5-3-5-5-----------10-----------3-----------5--
A-5-3-1-0---5-----------3-3-1-3-5--5-----------5-------------5-----------10-----------3-----------5--
E---------3-3-3-5-6-8-1-1----------3-------------------------3-3-5-6-7-8-8--8-6-5-3-1-1-1-3-5-6-3-3--

Verse:
E-----------------------------------------------------------------------------
B-----------------------------------------------------------------------------
G----------------------------7-7-7-7------------------------------------------
D-5-5-5-5--3-3-3-3--5-5-5-5--7-7-7-7--5-5-5-5--10-10-10-10--3-3-3-3--5-5-5-5--
A-5-5-5-5--3-3-3-3--5-5-5-5--5-5-5-5--5-5-5-5--10-10-10-10--3-3-3-3--5-5-5-5--
E-3-3-3-3--1-1-1-1--3-3-3-3-----------3-3-3-3--8--8--8--8---1-1-1-1--3-3-3-3--
    PM	     PM       PM       PM       PM        PM          PM       PM

Chorus
E----------------------------------------------------------------------------------------------------
B----------------------------------------------------------------------------------------------------
G----------------------------------------------7-----------------------------------------------------
D-----------5-----------3--------5-5-5-3-5-7-0-7-7h8-7-5-3-5-5-----------10-----------3-----------5--
A-5-3-1-5-1-5-----------3-3-1-3-5--5-----------5-------------5-----------10-----------3-----------5--
E-----------3-3-5-6-8-1-1----------3-------------------------3-3-5-6-7-8-8--8-6-5-3-1-1-1-3-5-6-3-3--

Thats pretty much the entire song. Listen to the track, you'll figure it out.
Comments