White Stripes - Offend In Every Way Chords & Tabs

 

Offend In Every Way Chords & Tabs

White Stripes Chords & Tabs

Version: 12 Type: Tab 0 ratings
1 star 2 stars 3 stars 4 stars 5 stars
comments

Offend In Every Way Tab

   
Song: Offend in every way
Artist: The White Stripes
Tuning: Standard EADGBE

[Note and chords at bottom]

Intro:
|------------------|------------------|------------------|----------------1-|
|------------------|------------------|------------------|----------------3-|
|------------------|------------------|------------0-----|-0----0--2------2-|
|-0--------------5-|----------------3-|----------0-----5-|----3------0------|
|----3--1--0-----5-|---0--1--3------3-|-3--1--3--------5-|------------------|
|------------3---3-|-3----------1---1-|----------------3-|------------------|

|------------------|------------------|------------------|------------------|
|------------------|------------------|------------------|------------------|
|-2/3--2--0---0----|-------------5----|------------------|------------------|
|-----------3----5-|-------------5----|----------------3-|----------------5-|
|----------------5-|---0-1-2-3---3----|-3--3--1--0-----3-|--------0--1----5-|
|----------------3-|-3----------------|------------1---1-|-1--3-----------3-|



Verse:                              
	Im paitient of this 
        Gm7
        plan, as humble as I
    E11 Fm7
	can, I wait another
    E11 Gm7
        day, Before I turn
    E11 Cm7      
	away, But know this much is 
    E11 Gm7
        true, No matter what I
    E11 Cm7
	do, Offend in every 
    E11 Dm7                       G 
	way, I dont know what to say



Bridge:
|------------------|------------------|------------------|----------------1-|
|------------------|------------------|------------------|----------------3-|
|------------------|------------------|------------0-----|-0----0--2------2-|
|-0--------------5-|----------------3-|----------0-----5-|----3------0------|
|----3--1--0-----5-|---0--1--3------3-|-3--1--3--------5-|------------------|
|------------3---3-|-3----------1---1-|----------------3-|------------------|

|------------------|------------------|------------------|------------------|
|------------------|------------------|------------------|------------------|
|2h3-2h3-0h2-0h2p0-|----------------5-|------------------|------------------|
|------------------|----------------5-|----------------3-|--------------5-5-|
|------------------|----0-1-2-3-----3-|-3--3--1--0-----3-|--------0--1--5-5-|
|------------------|-3----------------|-------------1--1-|-1--3---------3-3-|




Verse 2:
	Im coming through the 
	Gm7
	door, But theyre expecting more
    E11 Fm7
	more, Of an interesting man
    E11 Gm7
        man, Sometimes I Think I
    E11 Cm7
	can, but how much can I
    E11 Gm7
	fake, ill speak until I
    E11 Cm7
	break, with everyword I
    E11 Dm7                  G
	say offend in every way


[ Tab from: http://www.guitartabs.cc/tabs/w/white_stripes/offend_in_every_way_tab_ver_12.html ]
Bridge 2:
|------------------|------------------|------------------|----------------1-|
|------------------|------------------|------------------|----------------3-|
|------------------|------------------|------------0-----|-0----0--2------2-|
|-0--------------5-|----------------3-|----------0-----5-|----3------0------|
|----3--1--0-----5-|---0--1--3------3-|-3--1--3--------5-|------------------|
|------------3---3-|-3----------1---1-|----------------3-|------------------|

|------------------|------------------|------------------|------------------|
|------------------|------------------|------------------|------------------|
|2h3-2h3-0h2-0h2p0-|----------------5-|------------------|------------------|
|------------------|----------------5-|----------------3-|--------------5-5-|
|------------------|----0-1-2-3-----3-|-3--3--1--0-----3-|--------0--1--5-5-|
|------------------|-3----------------|-------------1--1-|-1--3---------3-3-|



Verse 3:
	You tell me to 
	Gm7
	Relax, and listen to these
    E11 Fm7
	facts, that everyones my 
    E11 Gm7
        friend, and will be 'til the
    E11 Cm7
	end, but know this much is
    E11 Gm7
	true, no matter what I
    E11 Cm7
	do, no matter what I 
    E11 Dm7                   G
	say, offend in every way



Bridge 3:
|------------------|------------------|------------------|----------------1-|
|------------------|------------------|------------------|----------------3-|
|------------------|------------------|------------0-----|-0----0--2------2-|
|-0--------------5-|----------------3-|----------0-----5-|----3------0------|
|----3--1--0-----5-|---0--1--3------3-|-3--1--3--------5-|------------------|
|------------3---3-|-3----------1---1-|----------------3-|------------------|

|------------------|------------------|------------------|------------------|-----------|
|------------------|------------------|------------------|------------------|-----------|
|2h3-2h3-0h2-0h2p0-|----------------5-|------------------|------------------|-----------|
|------------------|----------------5-|----------------3-|----------------5-|-----------|
|------------------|----0-1-2-3-----3-|-3--3--1--0-----3-|--------0--1----5-|-----------|
|------------------|-3----------------|-------------1--1-|-1--3-----------3-|-3-3-3-3-3-|



Outro:
|------------------|------------------|------------------|----------------1-|
|------------------|------------------|------------------|----------------3-|
|------------------|------------------|------------0-----|-0----0--2------2-|
|-0--------------5-|----------------3-|----------0-----5-|----3------0------|
|----3--1--0-----5-|---0--1--3------3-|-3--1--3--------5-|------------------|
|------------3---3-|-3----------1---1-|----------------3-|------------------|

|------------------|------------------|------------------|------------------|
|------------------|------------------|------------------|------------------|
|-2/3--2--0---0----|-------------5----|------------------|------------------|
|-----------3----5-|-------------5----|----------------3-|----------------5-|
|----------------5-|---0-1-2-3---3----|-3--3--1--0-----3-|--------0--1----5-|
|----------------3-|-3----------------|------------1---1-|-1--3-----------3-|



For the verses:
Strum each chord 4 times, Strum the last G twice 


Gm7 Em7 Cm7 Dm7 E11

--- --- --- --- ---
--- --- --- --- ---
--- --- -5- -5- ---
-5- -3- -5- -5- -0-
-5- -3- -3- -7- -0-
-3- -1- --- --- -0-
Comments