White Stripes - Offend In Every Way (intro) Chords & Tabs

 

Offend In Every Way (intro) Chords & Tabs

White Stripes Chords & Tabs

Version: 1 Type: Chords 0 ratings
1 star 2 stars 3 stars 4 stars 5 stars
comments

Offend In Every Way (intro) Chords

   
#----------------------------------PLEASE NOTE---------------------------------#
#This file is the author's own work and represents their interpretation of the #
#song. You may only use this file for private study, scholarship, or research. #
#------------------------------------------------------------------------------#

Artist: White Stripes
Song : Offend in Every Way
Album : White Blood Cells
[ Tab from: http://www.guitartabs.cc/tabs/w/white_stripes/offend_in_every_way_intro_crd.html ]
Chords
  EADGBe
G 320XXX
F 133XXX
D XX0232
C 332XXX
  
e--------------------------------------------------------------------------------
B-----------------------------------0-0-2-0-2-0----2b3-0----0-0------------------
G---------------------------------0------------3-3-------3-----------------------
D-0-----------------------------0-------------------------------------------0----
A---3-1-0-------0-1-3-----3-1-3-------------------------------------0-1-3-3--3-1-
E---------3-3-3-------1-1---------------------------------------1-3--------------

e---------------------------
B---------------------------
G---------------------------
D---------------------------
A-0--------0-1--------------
E--1-1-1-3-----3------------

Intro

G F G D G C F G
Comments