White Stripes - Offend In Every Way Chords & Tabs

 

Offend In Every Way Chords & Tabs

White Stripes Chords & Tabs

Version: 1 Type: Chords 0 ratings
1 star 2 stars 3 stars 4 stars 5 stars
comments

Offend In Every Way Chords

   
#----------------------------------PLEASE NOTE---------------------------------#
#This file is the author's own work and represents their interpretation of the #
#song. You may only use this file for private study, scholarship, or research. #
#------------------------------------------------------------------------------#


By The White Stripes
 Offend in Every Way
Tabbed by Robert Tabb

I think the other Tab I checked for this was correct
but I find that the way I play it makes it easier
to play the chords
[ Tab from: http://www.guitartabs.cc/tabs/w/white_stripes/offend_in_every_way_crd.html ]
              G           F           G           D             G
e|----------------------------------------------------------------
B|----------------------------------------------------------------
G|------------------------------------------------7---------------
D|--0---------5-----------3-------0---5-5-3-5-7---7-7/8-7-5-3-5-5-
A|----3-1-0---5---0-1-3---3-3-1-3-----5---------5-5-------------5-
E|----------3-3-3-------1-1---------3-3-------------------------3-

              C           F         G
e|-------------------------------------
B|-------------------------------------
G|------------5------------------------
D|------------5-----------3------------
A|----0-1-2-3-3-3-1-0-----3-----0-1----
E|--3-----------------3-1-1-1-3-----3--
 

e|--------------
B|--------------
G|--------------
D|--0------0----
A|----3-1----1--
E|--------------
[it then goes back to the intro only with slight
variations.  I'm not going to tab it out, just listen
to it, it's not too hard

Comments