White Stripes - Never Far Away Chords & Tabs

 

Never Far Away Chords & Tabs

White Stripes Chords & Tabs

Version: 1 Type: Tab 0 ratings
1 star 2 stars 3 stars 4 stars 5 stars
comments

Never Far Away Tab

   
#----------------------------------PLEASE NOTE---------------------------------#
#This file is the author's own work and represents their interpretation of the #
#song. You may only use this file for private study, scholarship, or research. #
#------------------------------------------------------------------------------#

"Walkin' Home to You"
by Jack White for the movie _Cold Mountain_
Tabbed by G√ľnter Voelker


Intro/Verse/Instrumental:

e |-4---2------0---4---2------0---7---5---4--4---7---5---4--4---7--7---6--6---5--5---4-|
B |-5---5-----0-0--5---5-----0-0--5---5---5-5-5--5---5---5-5-5------5------5------5----|
G |-4-4-4-4-h1---1-4-4-4-4-h1---1-4-4-4-4-4----4-4-4-4-4-4----4-4-4--4-4-4--4-4-4--4-4-|
D |------------------------------------------------------------------------------------|
A |------------------------------------------------------------------------------------|
E |------------------------------------------------------------------------------------|
[ Tab from: http://www.guitartabs.cc/tabs/w/white_stripes/never_far_away_tab.html ]
e |--4---7---5---4--4---4---2------0------0------0------0---|
B |---5--5---5---5---5--5---5-----0-0----0-0----0-0----0-0--|
G |-4--4-4-4-4-4-4-4--4-4-4-4-4-h1---1-h1---1-h1---1-h1---1-|
D |---------------------------------------------------------|
A |---------------------------------------------------------|
E |---------------------------------------------------------|

Lead-in to chorus:

e |-0-2/4/5/7/9-|
B |-------------|
G |-1-2-4-5-7-9-|
D |-------------|
A |-------------|
E |-------------|


Chorus:

A                       C            G
And the dirt beneath my heels in the road
A                          C              G
obeys commands from me and serves me as I go
A                                  C         G
and though it helps me know you're never far away
A                              G          G/F#     e
I can't help wondering how you might feel about me today

(...today...):

|----0------0------0------0---|
|---0-0----0-0----0-0----0-0--|
|-h1---1-h1---1 h1---1-h1---0-|
|-----------------------------|
|-----------------------------|
|-----------------------------|

(chorus)
(instrumental)
Comments