White Stripes - My Doorbell Chords & Tabs

 

My Doorbell Chords & Tabs

White Stripes Chords & Tabs

Version: 2 Type: Tab 0 ratings
1 star 2 stars 3 stars 4 stars 5 stars
comments

My Doorbell Tab

                                                                        
E||------|----------|----------|------|----------|----------|----------|
B||------|----------|----------|------|----------|----------|----------|
G||------|----------|----------|------|----------|----------|----------|
D||------|----------|----------|------|----------|----------|----------|
A||------|----------|----------|------|----------|----------|----------|
E||------|----------|----------|------|----------|----------|----------|


                                                                       
----------|--1----------------|--1----------------|-------------------|
----------|--1----------------|--3----------------|--8----------------|
----------|--2----------------|--3----------------|--8----------------|
----------|--3----------------|--3----------------|--8----------------|
----------|--3----------------|--1----------------|--6----------------|
----------|--1----------------|-------------------|-------------------|


                                                              
--1--------1--1------|--1----------------|--1----------------|
--1--------1--1------|--1----------------|--3----------------|
--2--------2--2------|--2----------------|--3----------------|
--3--------3--1------|--3----------------|--3----------------|
--3--------3--3------|--3----------------|--1----------------|
--1--------1--1------|--1----------------|-------------------|


                                                              
-------------------|--1--------1--1------|--1----------------|
--8----------------|--1--------1--1------|--1----------------|
--8----------------|--2--------2--2------|--2----------------|
--8----------------|--3--------3--1------|--3----------------|
--6----------------|--3--------3--3------|--3----------------|
-------------------|--1--------1--1------|--1----------------|


                                                              
--1----------------|-------------------|--1--------1--1------|
--3----------------|--8----------------|--1--------1--1------|
--3----------------|--8----------------|--2--------2--2------|
--3----------------|--8----------------|--3--------3--1------|
--1----------------|--6----------------|--3--------3--3------|
-------------------|-------------------|--1--------1--1------|


                                                            
--1----------------|--1----------------|-------------------|
--1----------------|--3----------------|--8----------------|
--2----------------|--3----------------|--8----------------|
--3----------------|--3----------------|--8----------------|
--3----------------|--1----------------|--6----------------|
--1----------------|-------------------|-------------------|


                                                              
--1--------1--1------|--1----------------|--1----------------|
--1--------1--1------|--1----------------|--3----------------|
--2--------2--2------|--2----------------|--3----------------|
--3--------3--1------|--3----------------|--3----------------|
--3--------3--3------|--3----------------|--1----------------|
--1--------1--1------|--1----------------|-------------------|


                                                              
-------------------|--1--------1--1------|--1----------------|
--8----------------|--1--------1--1------|--1----------------|
--8----------------|--2--------2--2------|--2----------------|
--8----------------|--3--------3--1------|--3----------------|
--6----------------|--3--------3--3------|--3----------------|
-------------------|--1--------1--1------|--1----------------|


                                                              
--1----------------|-------------------|--1--------1--1------|
--3----------------|--8----------------|--1--------1--1------|
--3----------------|--8----------------|--2--------2--2------|
--3----------------|--8----------------|--3--------3--1------|
--1----------------|--6----------------|--3--------3--3------|
-------------------|-------------------|--1--------1--1------|


                                                            
--1----------------|--1----------------|-------------------|
--1----------------|--3----------------|--8----------------|
--2----------------|--3----------------|--8----------------|
--3----------------|--3----------------|--8----------------|
--3----------------|--1----------------|--6----------------|
--1----------------|-------------------|-------------------|


                                                              
--1--------1--1------|--1----------------|--1----------------|
--1--------1--1------|--1----------------|--3----------------|
--2--------2--2------|--2----------------|--3----------------|
--3--------3--1------|--3----------------|--3----------------|
--3--------3--3------|--3----------------|--1----------------|
--1--------1--1------|--1----------------|-------------------|


                                                                 
---------------------|--1--------1----1----|--1--------1--------|
--8------------------|--1--------1----1----|--1--------1--------|
--8------------------|--2--------2----2----|--2--------2--------|
--8------------------|--3--------3----1----|--3--------3--------|
--6--------6----7----|--3--------3----3----|--3--------3--------|
---------------------|--1--------1----1----|--1--------1--------|


                                                                
------1----1--------|--------------------|--1--------1--1------|
------3----3--------|--8--------8--------|--1--------1--1------|
------3----3--------|--8--------8--------|--2--------2--2------|
------3----3--------|--8--------8--------|--3--------3--1------|
------1----1--------|--6--------6--------|--3--------3--3------|
--------------------|--------------------|--1--------1--1------|


                                                               
--1--------1--------|--1--------1--------|--------------------|
--1--------1--------|--3--------3--------|--8--------8--------|
--2--------2--------|--3--------3--------|--8--------8--------|
--3--------3--------|--3--------3--------|--8--------8--------|
--3--------3--------|--1--------1--------|--6--------6--------|
--1--------1--------|--------------------|--------------------|


                                                                
--1--------1--1------|--1--------1--------|--1--------1--------|
--1--------1--1------|--1--------1--------|--3--------3--------|
--2--------2--2------|--2--------2--------|--3--------3--------|
--3--------3--1------|--3--------3--------|--3--------3--------|
--3--------3--3------|--3--------3--------|--1--------1--------|
--1--------1--1------|--1--------1--------|--------------------|


                                                                
--------------------|--1--------1----1----|--1--------1--------|
--8--------8--------|--1--------1----1----|--1--------1--------|
--8--------8--------|--2--------2----2----|--2--------2--------|
--8--------8--------|--3--------3----1----|--3--------3--------|
--6--------6--------|--3--------3----3----|--3--------3--------|
--------------------|--1--------1----1----|--1--------1--------|


                                                                 
--1--------1--------|--------------------|--1------1----1--1----|
--3--------3--------|--8--------8--------|--1------1----1--1----|
--3--------3--------|--8--------8--------|--2------2----2--2----|
--3--------3--------|--8--------8--------|--3------3----3--1----|
--1--------1--------|--6--------6--------|--3------3----3--3----|
--------------------|--------------------|--1------1----1--1----|


                                                             
-------------------|--------------------|--1----------------|
--5----------------|------8------5------|--3----------------|
--5----------------|------8------5------|--3----------------|
--5----------------|------8------5------|--3----------------|
--3----------------|------6------3------|--1----------------|
-------------------|--------------------|-------------------|


                                                               
--------------------|--------------------|--------------------|
------5------8------|--10----------------|------5------8------|
------5------8------|--10----------------|------5------8------|
------5------8------|--10----------------|------5------8------|
------3------6------|--8-----------------|------3------6------|
--------------------|--------------------|--------------------|


                                                               
--------------------|---------------------|-------------------|
--10----------------|------10------8------|--5----------------|
--10----------------|------10------8------|--5----------------|
--10----------------|------10------8------|--5----------------|
--8-----------------|------8-------6------|--3----------------|
--------------------|---------------------|-------------------|


                                                               
------11------8------|--1----------------|--------------------|
------11------8------|--3----------------|------5------8------|
------8-------5------|--3----------------|------5------8------|
---------------------|--3----------------|------5------8------|
---------------------|--1----------------|------3------6------|
---------------------|-------------------|--------------------|


                                                               
--------------------|--------------------|--------------------|
--10----------------|------5------8------|--10----------------|
--10----------------|------5------8------|--10----------------|
--10----------------|------5------8------|--10----------------|
--8-----------------|------3------6------|--8-----------------|
--------------------|--------------------|--------------------|


                                                                  
-----------------------|-------------------|---------------------|
------10----10----8----|--5----------------|------8----8----5----|
------10----10----8----|--5----------------|------8----8----5----|
------10----10----8----|--5----------------|------8----8----5----|
------8-----8-----6----|--3----------------|------6----6----3----|
-----------------------|-------------------|---------------------|


                                                                 
-------------------|-----------------------|--------------------|
-------------------|-----------------------|--------------------|
-------------------|-----------------------|--------------------|
--8----------------|------10----10----8----|--6--------6--------|
--8----------------|------10----10----8----|--6--------6--------|
--6----------------|------8-----8-----6----|--4--------4--------|


                                                                
--------------------|--------------------|---------------------|
--------------------|--------------------|---------------------|
--------------------|--------------------|-------3----3--------|
--6--------6--------|--6--------6--------|--6----3----3--------|
--6--------6--------|--6--------6--------|--6----1----1--------|
--4--------4--------|--4--------4--------|--4------------------|


                                                                             
--1----------------|------------------|------------------|------------------|
--1----------------|------------------|------------------|------------------|
--2----------------|------------------|------------------|------------------|
--3----------------|------------------|------------------|------------------|
--3----------------|------------------|------------------|------------------|
--1----------------|------------------|------------------|------------------|


                                                                  
------------------|--------|--------|--------|--1----------------|
------------------|--------|--------|--------|--1----------------|
------------------|--------|--------|--------|--2----------------|
------------------|--------|--------|--------|--3----------------|
------------------|--------|--------|--------|--3----------------|
------------------|--------|--------|--------|--1----------------|


                                                              
--1----------------|-------------------|--1------------------|
--3----------------|--8----------------|--1------------------|
--3----------------|--8----------------|--2------------------|
--3----------------|--8----------------|--3--------3--1------|
--1----------------|--6----------------|--3--------3--3------|
-------------------|-------------------|--1--------1--1------|


                                                            
--1----------------|--1----------------|-------------------|
--1----------------|--3----------------|--8----------------|
--2----------------|--3----------------|--8----------------|
--3----------------|--3----------------|--8----------------|
--3----------------|--1----------------|--6----------------|
--1----------------|-------------------|-------------------|

[ Tab from: http://www.guitartabs.cc/tabs/w/white_stripes/my_doorbell_tab_ver_2.html ]
                                                              
--1------------------|--1----------------|--1----------------|
--1------------------|--1----------------|--3----------------|
--2------------------|--2----------------|--3----------------|
--3--------3--1------|--3----------------|--3----------------|
--3--------3--3------|--3----------------|--1----------------|
--1--------1--1------|--1----------------|-------------------|


                                                              
-------------------|--1------------------|--1----------------|
--8----------------|--1------------------|--1----------------|
--8----------------|--2------------------|--2----------------|
--8----------------|--3--------3--1------|--3----------------|
--6----------------|--3--------3--3------|--3----------------|
-------------------|--1--------1--1------|--1----------------|


                                                              
--1----------------|-------------------|--1------------------|
--3----------------|--8----------------|--1------------------|
--3----------------|--8----------------|--2------------------|
--3----------------|--8----------------|--3--------3--1------|
--1----------------|--6----------------|--3--------3--3------|
-------------------|-------------------|--1--------1--1------|


                                                            
--1----------------|--1----------------|-------------------|
--1----------------|--3----------------|--8----------------|
--2----------------|--3----------------|--8----------------|
--3----------------|--3----------------|--8----------------|
--3----------------|--1----------------|--6----------------|
--1----------------|-------------------|-------------------|


                                                              
--1--------1--1------|--1----------------|--1----------------|
--1--------1--1------|--1----------------|--3----------------|
--2--------2--2------|--2----------------|--3----------------|
--3--------3--1------|--3----------------|--3----------------|
--3--------3--3------|--3----------------|--1----------------|
--1--------1--1------|--1----------------|-------------------|


                                                                 
---------------------|--1--------1----1----|--1--------1--------|
--8------------------|--1--------1----1----|--1--------1--------|
--8------------------|--2--------2----2----|--2--------2--------|
--8------------------|--3--------3----1----|--3--------3--------|
--6--------6----7----|--3--------3----3----|--3--------3--------|
---------------------|--1--------1----1----|--1--------1--------|


                                                                
--1--------1--------|--------------------|--1--------1--1------|
--3--------3--------|--8--------8--------|--1--------1--1------|
--3--------3--------|--8--------8--------|--2--------2--2------|
--3--------3--------|--8--------8--------|--3--------3--1------|
--1--------1--------|--6--------6--------|--3--------3--3------|
--------------------|--------------------|--1--------1--1------|


                                                               
--1--------1--------|--1--------1--------|--------------------|
--1--------1--------|--3--------3--------|--8--------8--------|
--2--------2--------|--3--------3--------|--8--------8--------|
--3--------3--------|--3--------3--------|--8--------8--------|
--3--------3--------|--1--------1--------|--6--------6--------|
--1--------1--------|--------------------|--------------------|


                                                                
--1--------1--1------|--1--------1--------|--1--------1--------|
--1--------1--1------|--1--------1--------|--3--------3--------|
--2--------2--2------|--2--------2--------|--3--------3--------|
--3--------3--1------|--3--------3--------|--3--------3--------|
--3--------3--3------|--3--------3--------|--1--------1--------|
--1--------1--1------|--1--------1--------|--------------------|


                                                                
--------------------|--1--------1--1------|--1--------1--------|
--8--------8--------|--1--------1--1------|--1--------1--------|
--8--------8--------|--2--------2--2------|--2--------2--------|
--8--------8--------|--3--------3--1------|--3--------3--------|
--6--------6--------|--3--------3--3------|--3--------3--------|
--------------------|--1--------1--1------|--1--------1--------|


                                                                 
--1--------1--------|--------------------|--1------1----1--1----|
--3--------3--------|--8--------8--------|--1------1----1--1----|
--3--------3--------|--8--------8--------|--2------2----2--2----|
--3--------3--------|--8--------8--------|--3------3----3--1----|
--1--------1--------|--6--------6--------|--3------3----3--3----|
--------------------|--------------------|--1------1----1--1----|


                                                             
-------------------|--------------------|--1----------------|
--5----------------|------8------5------|--3----------------|
--5----------------|------8------5------|--3----------------|
--5----------------|------8------5------|--3----------------|
--3----------------|------6------3------|--1----------------|
-------------------|--------------------|-------------------|


                                                               
--------------------|--------------------|--------------------|
------5------8------|--10----------------|------5------8------|
------5------8------|--10----------------|------5------8------|
------5------8------|--10----------------|------5------8------|
------3------6------|--8-----------------|------3------6------|
--------------------|--------------------|--------------------|


                                                               
--------------------|---------------------|-------------------|
--10----------------|------10------8------|--5----------------|
--10----------------|------10------8------|--5----------------|
--10----------------|------10------8------|--5----------------|
--8-----------------|------8-------6------|--3----------------|
--------------------|---------------------|-------------------|


                                                               
------11------8------|--1----------------|--------------------|
------11------8------|--3----------------|------5------8------|
------8-------5------|--3----------------|------5------8------|
---------------------|--3----------------|------5------8------|
---------------------|--1----------------|------3------6------|
---------------------|-------------------|--------------------|


                                                               
--------------------|--------------------|--------------------|
--10----------------|------5------8------|--10----------------|
--10----------------|------5------8------|--10----------------|
--10----------------|------5------8------|--10----------------|
--8-----------------|------3------6------|--8-----------------|
--------------------|--------------------|--------------------|


                                                                  
-----------------------|-------------------|---------------------|
------10----10----8----|--5----------------|------8----8----5----|
------10----10----8----|--5----------------|------8----8----5----|
------10----10----8----|--5----------------|------8----8----5----|
------8-----8-----6----|--3----------------|------6----6----3----|
-----------------------|-------------------|---------------------|


                                                                 
-------------------|-----------------------|--------------------|
-------------------|-----------------------|--------------------|
-------------------|-----------------------|--------------------|
--8----------------|------10----10----8----|--6--------6--------|
--8----------------|------10----10----8----|--6--------6--------|
--6----------------|------8-----8-----6----|--4--------4--------|


                                                                
--------------------|--------------------|---------------------|
--------------------|--------------------|---------------------|
--------------------|--------------------|-------3----3--------|
--6--------6--------|--6--------6--------|--6----3----3--------|
--6--------6--------|--6--------6--------|--6----1----1--------|
--4--------4--------|--4--------4--------|--4------------------|


                                                                             
--1----------------|------------------|------------------|------------------|
--1----------------|------------------|------------------|------------------|
--2----------------|------------------|------------------|------------------|
--3----------------|------------------|------------------|------------------|
--3----------------|------------------|------------------|------------------|
--1----------------|------------------|------------------|------------------|


                                                                   
------------------|--------|--------|--------|--1--------1--------|
------------------|--------|--------|--------|--1--------1--------|
------------------|--------|--------|--------|--2--------2--------|
------------------|--------|--------|--------|--3--------3--------|
------------------|--------|--------|--------|--3--------3--------|
------------------|--------|--------|--------|--1--------1--------|


                                                                
------1----1--------|--------------------|--1--------1----1----|
------3----3--------|--8--------8--------|--1--------1----1----|
------3----3--------|--8--------8--------|--2--------2----2----|
------3----3--------|--8--------8--------|--3--------3----1----|
------1----1--------|--6--------6--------|--3--------3----3----|
--------------------|--------------------|--1--------1----1----|


                                                               
--1--------1--------|--1--------1--------|--------------------|
--1--------1--------|--3--------3--------|--8--------8--------|
--2--------2--------|--3--------3--------|--8--------8--------|
--3--------3--------|--3--------3--------|--8--------8--------|
--3--------3--------|--1--------1--------|--6--------6--------|
--1--------1--------|--------------------|--------------------|


                                                                
--1--------1----1----|--1--------1--------|--1--------1--------|
--1--------1----1----|--1--------1--------|--3--------3--------|
--2--------2----2----|--2--------2--------|--3--------3--------|
--3--------3----1----|--3--------3--------|--3--------3--------|
--3--------3----3----|--3--------3--------|--1--------1--------|
--1--------1----1----|--1--------1--------|--------------------|


                                                                
--------------------|--1--------1----1----|--1--------1--------|
--8--------8--------|--1--------1----1----|--1--------1--------|
--8--------8--------|--2--------2----2----|--2--------2--------|
--8--------8--------|--3--------3----1----|--3--------3--------|
--6--------6--------|--3--------3----3----|--3--------3--------|
--------------------|--1--------1----1----|--1--------1--------|


                                                                
--1--------1--------|--------------------|--1--------1----1----|
--3--------3--------|--8--------8--------|--1--------1----1----|
--3--------3--------|--8--------8--------|--2--------2----2----|
--3--------3--------|--8--------8--------|--3--------3----1----|
--1--------1--------|--6--------6--------|--3--------3----3----|
--------------------|--------------------|--1--------1----1----|


                                                               
--1--------1--------|--1--------1--------|--------------------|
--1--------1--------|--3--------3--------|--8--------8--------|
--2--------2--------|--3--------3--------|--8--------8--------|
--3--------3--------|--3--------3--------|--8--------8--------|
--3--------3--------|--1--------1--------|--6--------6--------|
--1--------1--------|--------------------|--------------------|


                                                                
--1--------1----1----|--1--------1--------|--1--------1--------|
--1--------1----1----|--1--------1--------|--3--------3--------|
--2--------2----2----|--2--------2--------|--3--------3--------|
--3--------3----1----|--3--------3--------|--3--------3--------|
--3--------3----3----|--3--------3--------|--1--------1--------|
--1--------1----1----|--1--------1--------|--------------------|


                                                                
--------------------|--1--------1----1----|--1--------1--------|
--8--------8--------|--1--------1----1----|--1--------1--------|
--8--------8--------|--2--------2----2----|--2--------2--------|
--8--------8--------|--3--------3----1----|--3--------3--------|
--6--------6--------|--3--------3----3----|--3--------3--------|
--------------------|--1--------1----1----|--1--------1--------|


                                                                 
--1--------1--------|--------------------|--1--------1----1----||
--3--------3--------|--8--------8--------|--1--------1----1----||
--3--------3--------|--8--------8--------|--2--------2----2----||
--3--------3--------|--8--------8--------|--3--------3----1----||
--1--------1--------|--6--------6--------|--3--------3----3----||
--------------------|--------------------|--1--------1----1----||


	
Comments