White Stripes - Little People Chords & Tabs

 

Little People Chords & Tabs

White Stripes Chords & Tabs

Version: 1 Type: Tab 0 ratings
1 star 2 stars 3 stars 4 stars 5 stars
comments

Little People Tab

   
----------------------------------------------------------------------------
			     Little People- White Stripes
----------------------------------------------------------------------------
Tabbed by:natd
Email:
[ Tab from: http://www.guitartabs.cc/tabs/w/white_stripes/little_people_tab.html ]
Tuning: standard
intro:
e|--------------------------------------------------------------------------|
B|--------------------------------------------------------------------------|
G|--------------------------------------------------------------------------|
D|----7-5-7-x-x-7-5-7---7-5-7---7-5-7---------------------------------------|
A|----7-5-7-x-x-7-5-7---7-5-7---7-5-7---------------------------------------|
E|----5-3-5-x-x-5-3-5---5-3-5---5-3-5---------------------------------------|
verse
PM...................................            PM...............
e|--------------------------------------------------------------------------|
B|--------------------------------------------------------------------------|
G|--------------------------------------------------------------------------|
D|-7-7-7-7-7-7-7-7-7-7-7-7-7-7-7-7-7-----5--------7-7-7-7-7-7-7-7-----7-----|
A|-7-7-7-7-7-7-7-7-7-7-7-7-7-7-7-7-7-----5--------7-7-7-7-7-7-7-7-----7-----|
E|-5-5-5-5-5-5-5-5-5-5-5-5-5-5-5-5-5-----3--------5-5-5-5-5-5-5-5-----5-----|
these are the main parts just put them together in the right order

| /  slide up
| \  slide down
| h  hammer-on
| p  pull-off
| ~  vibrato
| +  harmonic
| x  Mute note
============================================================================
Comments