White Stripes - Little Acorns Chords & Tabs

 

Little Acorns Chords & Tabs

White Stripes Chords & Tabs

Version: 1 Type: Tab 1 rating
1 star 2 stars 3 stars 4 stars 5 stars
comments

Little Acorns Tab

   
song: Little Acorns
Band: White Stripes
Album: Elephant
Tabber: Pooponabagel
Allright, this is the best band of the year, and
I could never find this tab.  Well I found out how
to do it myself and I think it's pretty damn good!
this is a good song, jack's voice kinda sounds
like boy george in it though.

intro: Man talking about acorns

guitar intro 1: medium tempo, make sure your slides are quick!
e-//---------------------------------------------
b-//---------------------------------------------
g-//-------3/7--------3/7--------3/7--------3/7--
d-//-8--6-5-----8--6-5-----8--6-5-----8--6-5-----
a-//-8--6-5-----8--6-5-----8--6-5-----8--6-5-----
e-//-6--4-3-----6--4-3-----6--4-3-----6--4-3-----
[ Tab from: http://www.guitartabs.cc/tabs/w/white_stripes/little_acorns_tab.html ]
guitar intro 2: the order goes intro 1, 2, 1, 2, then to the verse
e-//---------------------------------------------
b-//--------------------------------------------
g-//----------------------------------3/7--------
d-//-8--6-8--8--8-8-8-8-7--7-7-6-6-6-5-----------
a-//-8--6-8--8--8-8-8-8-7--7-7-6-6-6-5-----------
e-//-6--4-6--6--6-6-6-6-5--5-5-4-4-4-3-----------
guitar intro 2 ending 2: after the 2nd time you do guitar intro 2,
instead of doing the slide, do this
e-//-------
b-//-------
g-//-------
d-//-12--/5
a-//-12--/5
e-//-10--/3

Verses: palm mute whole time, until right before chorus 
e-//----------------------------------------------------------------
b-//----------------------------------------------------------------
g-//----------------------------------------------------------------
d-//----------------------------------------------------------------
a-//----------------------------------------------------------------
e-//-3-3-3-3-3-3-3-3-3-3-3-3-3-3-3-0-1-1-1-1-1-1-1-1-1-1-1-1-1-1-1-0
         play this five times, then go to the chorus
         the chorus is the guitar intros 1 and 2, then back to 1, then 2
         There is no solo in this song.
pretty spiffy eh?
I think so.


Comments