White Stripes - Little Acorns Chords & Tabs

 

Little Acorns Chords & Tabs

White Stripes Chords & Tabs

Version: 1 Type: Bass Tab 0 ratings
1 star 2 stars 3 stars 4 stars 5 stars
comments

Little Acorns Bass Tab

   
-------------------------------------------------------------------------------
		       The White Stripes - Little Acorns
-------------------------------------------------------------------------------

Tabbed By : Harald Hveem 
e-mail: ace_ventuora@hotmail.com

Tuning: Normal (E-A-D-G)

First the man and piano play, when the guitar starts; play:

G|------------------|
D|------------------|
A|------------------|   x4
E|---6--4--3---10---|  

G|----------------------------------------|
D|----------------------------------------|
A|----------------------------------------|   
E|---6--4--6-6-6-6---5--5---4--4---3------|

G|------------------|
D|------------------|
A|------------------|   x4
E|---6--4--3---10---|  

G|----------------------------------------|
D|----------------------------------------|
A|----------------------------------------|   
E|---6--4--6-6-6-6---5--5---4--4---3------|

G|----------------------------------------|
D|----------------------------------------|
A|----------------------------------------|   
E|--3333333333333333-0-1111111111111111-0-|  x5

G|-------------------|
D|-------------------|
A|-------------------|  
E|---3--3------------|  

G|-------------------|
D|-------------------|
A|-------------------|  
E|---6-6--4--3-------|  

G|-------------------|
D|-------------------|
A|-------------------|  x2
E|---6-6--4--1-1-----|  

G|-------------------|
D|-------------------|
A|-------------------|  x2
E|---6-6--4--3-------|  

G|-------------------|
D|-------------------|
A|-------------------|  x2
E|---6-6--4--1-1-----|  
[ Tab from: http://www.guitartabs.cc/tabs/w/white_stripes/little_acorns_btab.html ]
G|-------------------|
D|-------------------|
A|-------------------|   x4
E|---6--4--3---10----|  

G|-----------------------------------------|
D|-----------------------------------------|
A|-----------------------------------------|   
E|---6--4--6-6-6-6---5--5---4--4---3---10--|

G|-------------------|
D|-------------------|
A|-------------------|   x4
E|---6--4--3---10----| 

G|-----------------------------------------|
D|-----------------------------------------|
A|-----------------------------------------|   
E|---6--4--6-6-6-6---5--5---4--4---3-------|

G|-----------------------------------------|
D|-----------------------------------------|
A|-----------------------------------------|   
E|--3333333333333333-0-1111111111111111-0--|  x4


G|-------------------|
D|-------------------|
A|-------------------|  
E|---3--3------------|  

G|-------------------|
D|-------------------|
A|-------------------|  
E|---6-6--4--3-3-----|  

G|-------------------|
D|-------------------|
A|-------------------|  x2
E|---6-6--4--1-1-----|  

G|-------------------|
D|-------------------|
A|-------------------|  x2
E|---6-6--4--3-3-----|  

G|-------------------|
D|-------------------|
A|-------------------|  x2
E|---6-6--4--1-1-----|  

G|-------------------|
D|-------------------|
A|-------------------|  x2
E|---6-6--4--3-3-----|  

G|-------------------|
D|-------------------|
A|-------------------|  x2
E|---6-6--4--1-1-----|  


G|-------------------|
D|-------------------|
A|-------------------|   x4
E|---6--4--3---10----|  

G|-----------------------------------------|
D|-----------------------------------------|
A|-----------------------------------------|   
E|---6--4--6-6-6-6---5--5---4--4---3-3-----|


Have fun :)
Rate?
Comments