White Stripes - Lafayette Blues Chords & Tabs

 

Lafayette Blues Chords & Tabs

White Stripes Chords & Tabs

Version: 1 Type: Tab 0 ratings
1 star 2 stars 3 stars 4 stars 5 stars
comments

Lafayette Blues Tab

   
===============
Lafayette Blues
===============
12.1.03
Adis K.
cerrenus@hotmail.com

Tabbed to play on 1 guitar

Intro riff (and in other parts of the song) ==CLEAN==

e|---------------------------------------------------
B|---------------------------------------------------
G|----------1--2-2/4--2--1---------------------------
D|--2--2-2-----------------2---0--0-0-4-5-5/7-5-4-0--
A|---------------------------------------------------
E|---------------------------------------------------



This is the part where he starts singing (D=Distortion C=Clean)
Let the distortion chords ring through.
    D    C    D    C    D    C    D    C    D    C     D    C
e|-------------------------------------------------------------
B|-----------------------------------------------10------------
G|-------9---------9---------9---------9----2----9----------9--
D|--2----9----2----9----2----9----2----9----2----7-----2----9--
A|--2----7----2----7----2----7----2----7----0----------2----7--
E|--0---------0---------0---------0--------------------0-------


Interlude thingamajiggy ==CLEAN==
e|-------------------------------------------------------------------
B|-------------------------------------------------------------------
G|--4-4-4-4-4-4-4-4-2-2-2-2-2-2-2-2----------------------------------
D|--4-4-4-4-4-4-4-4-2-2-2-2-2-2-2-2-2-2-2-2-2-2-2-2-2-2-2-2-2-2-2-2--
A|--2-2-2-2-2-2-2-2-0-0-0-0-0-0-0-0-2-2-2-2-2-2-2-2-2-2-2-2-2-2-2-2--
E|----------------------------------0-0-0-0-0-0-0-0-0-0-0-0-0-0-0-0--


Some other part of the song.. ;)  "B" means bend. Bend 3/4 note.
"V" means vibrato, as in wiggle that thang! 
I hope that my music terminology is right!  ==CLEAN==
[ Tab from: http://www.guitartabs.cc/tabs/w/white_stripes/lafayette_blues_tab.html ]
e|------------16-17-19-17-16---------------------------
B|--17--17-17----------------17--15--15-15-17-18B-17V--
G|-----------------------------------------------------
D|-----------------------------------------------------
A|-----------------------------------------------------
E|-----------------------------------------------------

Other part of the song.. part deux (comes before the "I'm ready to rock.."  ==CLEAN==
e|-------------------------------------
B|-------------------------------------
G|--4-4-4-4-4-4-4-4-2-2-2-2-2-2-2-2----
D|--4-4-4-4-4-4-4-4-2-2-2-2-2-2-2-2-2--
A|--2-2-2-2-2-2-2-2-0-0-0-0-0-0-0-0-2--
E|----------------------------------0--

I'm ready, I'm ready, I'm ready, ready teddy to rock & roll! ==CLEAN==
e|-------------------------------------------------------------
B|-------------------------------------------------------------
G|--9-9-9-9-9-9-9\7-9-9-9-9-9-9-9\7-9-9-9-9-9-9-9\7-9-9-9-9-9--
D|--9-9-9-9-9-9-9\7-9-9-9-9-9-9-9\7-9-9-9-9-9-9-9\7-9-9-9-9-9--
A|--7-7-7-7-7-7-7\5-7-7-7-7-7-7-7\5-7-7-7-7-7-7-7\5-7-7-7-7-7--
E|-------------------------------------------------------------

Continuation ==CLEAN==
e|--------------------------------------------------------------------
B|--------------------------------------------------------------------
G|--------------------------------9-9-9-9-9-10-9-7--9-----------------
D|--------7-7-7-7-7----7-7-7-7-7--9-9-9-9-9-10-9-7--9--16x on---------
A|--------7-7-7-7-7----7-7-7-7-7--7-7-7-7-7-8--7-5--7--this last------
E|--2-3-4-5-5-5-5-5--4-5-5-5-5-5-----------------------chord-(fast!)--


==DISTORTION!==  H=Hammer On P=Pull Off
                        H   P   H   P   H   P
e|---------------------------------------------------------0--
B|---------------------------------------------------------0--
G|--4--4--4--4--4--4--4---4---4---4---4---4----4--2--------0--
D|--4--4--4--4--4--4--4---4---4---4---4---4----4--2--5--4--2--
A|--2--2--2--2--2--2--2-3-2-0-2-3-2-0-2-3-2-0--2--0--5--4--2--
E|---------------------------------------------------3--2--0--
Comments