White Stripes - Jolene Chords & Tabs

 

Jolene Chords & Tabs

White Stripes Chords & Tabs

Version: 7 Type: Tab 0 ratings
1 star 2 stars 3 stars 4 stars 5 stars
comments

Jolene Tab

   
-------------------------------------------------------------------------------
			     Jolene - White Stripes
-------------------------------------------------------------------------------
Tabbed by:Eric

Tuning: E Standard Tunning

Chords Used:

 E |--1---1--0---|
 B |--3---1--1---|
 G |--2---2--0---|
 D |--0---3--2---|
 A |--X---3--3---|
 E |--X---1--0---|
      Dm  F  C

Intro:

     Dm
 E |--------0h1-0h1-3p1-0--0h1-0h1-3p1-0--0h1-0h1-3p1-0--0h1-0h1--|
 B |------3-------------------------------------------------------|
 G |----2------2---2----------2---2----------2---2----------2---2-|
 D |--0-----------------------------------------------------------|
 A |--------------------------------------------------------------|
 E |--------------------------------------------------------------|

Verse:
[ Tab from: http://www.guitartabs.cc/tabs/w/white_stripes/jolene_tab_ver_7.html ]
     Dm      F       C       Dm     |------Fill------|             
     Jolene, Jolene, Jolene, Jolene |                |
 E |-------1------------------------|-0h1-0h1-3p1-0--|
 B |-----3-----------------1-----3--|----------------|
 G |---2-----------2-----0-----2----|----2---2-------|
 D |-0-----------3-----2-----0------|----------------|   
 A |-----------3-----3--------------|----------------|
 E |---------1----------------------|----------------|                   

     C                          Dm
     I'm begging of you, please don't take my man
 E |------------------------------------------0h1-0h1-3p1-0--0h1-0h1--|
 B |--------------1-----------------------3---------------------------|
 G |----------0-------0---------------2----------2---2----------2---2-|
 D |------2---------------2-------0-----------------------------------|
 A |--3-----------------------3---------------------------------------|
 E |------------------------------------------------------------------|
                      
Comments