White Stripes - Jolene Chords & Tabs

 

Jolene Chords & Tabs

White Stripes Chords & Tabs

Version: 5 Type: Tab 0 ratings
1 star 2 stars 3 stars 4 stars 5 stars
comments

Jolene Tab

   
-----------------------------------------------------------------------------
		             SONG NAME - Band Name
-----------------------------------------------------------------------------

Tabbed by: Pete Haaland
Email: Pete@Frozenroyalty.co.uk

The guitar does pretty much the same thing all the way through so there's not many
point in me repeating myself too much! Just make sure the drummer breaks loose.

Chords Used:

 E |--1---1--0---|
 B |--3---1--1---|
 G |--2---2--0---|
 D |--0---3--2---|
 A |--X---3--3---|
 E |--X---1--0---|
      Dm  F  C

Intro:
 E |--------0-1-0-----------0-3-1-0---|
 B |------3-------3-------3---------3-|
 G |----2-----------2---2-------------|
 D |--0---------------0---------------|    (x2)
 A |----------------------------------|
 E |----------------------------------|

Verse:

Dm      F       C       Dm
Jolene, Jolene, Jolene, Jolene
C                   
I'm begging of you, please don't take my man

 E |--------0-1-0-----------0-3-1-0---|
 B |------3-------3-------3---------3-|
 G |----2-----------2---2-------------|
 D |--0---------------0---------------|   
 A |----------------------------------|
 E |----------------------------------|
[ Tab from: http://www.guitartabs.cc/tabs/w/white_stripes/jolene_tab_ver_5.html ]
Dm      F       C       Dm
Jolene, Jolene, Jolene, Jolene
C
Please don't take him even because you can

 E |--------0-1-0-----------0-3-1-0---|
 B |------3-------3-------3---------3-|
 G |----2-----------2---2-------------|
 D |--0---------------0---------------|   
 A |----------------------------------|
 E |----------------------------------|

(Keep Going)

Your beauty is beyond compare
With flaming locks of auburn hair
With ivory skin and eyes of emerald green

Your smile is like a breath of spring
Your voice is soft like a summer rain
And I cannot compete with you, Jolene

He talks about you in his sleep
And there's nothing I can do to keep                        
From crying when he calls your name, Jolene

Chorus

(Do the same but go for the pedal or some sort of FX change and strum hard and shout)

Jolene, Jolene, Jolene, Jolene
I'm begging of you, please don't take my man
Jolene, Jolene, Jolene, Jolene
Please don't take him even because you can

Well, I can easily understand
How you could easily take my man
But you don't know what he means to me, Jolene
Well, you could have your choice of men
But I could never love again
He's the only one for me, Jolene
I had to have this talk with you
My happiness depends on you
And whatever you decide to do, Jolene

Jolene, Jolene, Jolene, Jolene
I'm begging of you, please don't take my man
Jolene, Jolene, Jolene, Jolene
Please don't take him even though you can
Comments