White Stripes - Jolene Chords & Tabs

 

Jolene Chords & Tabs

White Stripes Chords & Tabs

Version: 4 Type: Tab 0 ratings
1 star 2 stars 3 stars 4 stars 5 stars
comments

Jolene Tab

   this is a better verson 

the begining is like this
Fig1


|-------0h1-0h1-0h1-----|    
|-----3------------3----|
|---2-------------------|  repeat2x
|-0---------------------| 
|-----------------------|
|-----------------------|



Early in the song it does this: Dm/Dmsus2
[ Tab from: http://www.guitartabs.cc/tabs/w/white_stripes/jolene_tab_ver_4.html ]
    |     |         |     |
e---------0----0-2--------0-2--------|
B------3--3----3----3-----3----3--3--|
G---2--2--2----2----2--2--2----2--2--|
D---0--0--0----0----0--0--0----0--0--|
A------------------------------------|
E------------------------------------|


Then later it's this: Dm/Dmsus2/Dmsus4

    |     |         |     |
e---------0----0-2--------3-2--------|
B------3--3----3----3-----3----3--3--|
G---2--2--2----2----2--2--2----2--2--|
D---0--0--0----0----0--0--0----0--0--|
A------------------------------------|
E------------------------------------|


That works for me anyway.
Comments