White Stripes - Jolene Chords & Tabs

 

Jolene Chords & Tabs

White Stripes Chords & Tabs

Version: 3 Type: Tab 0 ratings
1 star 2 stars 3 stars 4 stars 5 stars
comments

Jolene Tab

song: Jolene
artist: The White Stripes
website: www.whitestripes.com


I know I already tabbed this, this file is just a more explained version
of the bit between
the verses.


Early in the song it does this: Dm/Dmsus2
[ Tab from: http://www.guitartabs.cc/tabs/w/white_stripes/jolene_tab_ver_3.html ]
    |     |         |     |
e---------0----0-2--------0-2--------|
B------3--3----3----3-----3----3--3--|
G---2--2--2----2----2--2--2----2--2--|
D---0--0--0----0----0--0--0----0--0--|
A------------------------------------|
E------------------------------------|


Then later it's this: Dm/Dmsus2/Dmsus4

    |     |         |     |
e---------0----0-2--------3-2--------|
B------3--3----3----3-----3----3--3--|
G---2--2--2----2----2--2--2----2--2--|
D---0--0--0----0----0--0--0----0--0--|
A------------------------------------|
E------------------------------------|


That works for me anyway.
For the rest of it check out the chord file.

tabbed by Joel Haddley, 06/06/03
Comments