White Stripes - Jolene Chords & Tabs

 

Jolene Chords & Tabs

White Stripes Chords & Tabs

Version: 2 Type: Tab 0 ratings
1 star 2 stars 3 stars 4 stars 5 stars
comments

Jolene Tab

--------------------------------------------------------------------------
			   JOLENE - White Stripes
--------------------------------------------------------------------------
Tabbed by: JP St.Germain
[ Tab from: http://www.guitartabs.cc/tabs/w/white_stripes/jolene_tab_ver_2.html ]
Tuning:
e|-----------0-----------1-----------0-----------1------------------------|
B|--------3-----------3-----------3-----------3---------------------------|
G|-----2-----------2-----------2-----------2------------------------------|
D|--0-----------0-----------0-----------0---------------------------------|
A|------------------------------------------------------------------------|
E|------------------------------------------------------------------------|
Comments