White Stripes - Jolene Chords & Tabs

 

Jolene Chords & Tabs

White Stripes Chords & Tabs

Version: 1 Type: Tab 2 ratings
1 star 2 stars 3 stars 4 stars 5 stars
comments

Jolene Tab

   
#----------------------------------PLEASE NOTE---------------------------------#
#This file is the author's own work and represents their interpretation of the #
#song. You may only use this file for private study, scholarship, or research. #
#------------------------------------------------------------------------------#

Song: Jolene
Artist: The White Stripes
Album: White blood cells (bonus track on some edition)
Tabbed by: Gouge97 (utherhaus@hotmail.com)


A great cover by Jackie White and his sister.  It seems that the intro is causing some
problem for the people trying to tab it.  Here's my shot at it, it sounds perfect.

intro:

e|-------0h1-----0h1--------0-0h1-----0h1--------0-0h1-----0h1--------0-0h1-----0h1-------1---
B|-----3-----3--------3---3-------3--------3---3-------3--------3---3--------3------3---3-----
G|---2---------2--------2-----------2--------2-----------2--------2------------2------2-------
D|-0------------------------------------------------------------------------------------------
A|--------------------------------------------------------------------------------------------
E|--------------------------------------------------------------------------------------------
[ Tab from: http://www.guitartabs.cc/tabs/w/white_stripes/jolene_tab.html ]
You will have to play that Dsus2/Dm thing throughout the whole song.  Like someone else did on
his Jolene tab, I'll mark those moments by Dm*.  So, for a Dm*, strum the chord once then play
the Dsus2/Dm riff once.  For a Dm**, strum the chord once then play the riff twice.  See at
the end of the tab to see more precisely what I mean.                


(you can turn on some distortion for the next chorus part)


(bring back the clean sound for the verse)


(and then some distortion again for the last chorus


-------------------------------------------------------------------------------------------

Dm*
e|--1----0-0h1-----0h1-----------------
B|--3--3-------3----------------------- note: just before the last "0h1" on the "e" string,
G|--2------------2---------------------       you can play a "3" on the "B" string, it's
D|--0----------------------------------       sort of a ghost note that Jack plays 
A|-------------------------------------       randomly.
E|-------------------------------------

Dm**
e|--1----0-0h1-----0h1-------0-0h1-----0h1---
B|--3--3-------3-------3---3-------3---------
G|--2------------2-------2-----------2-------
D|--0----------------------------------------
A|-------------------------------------------
E|-------------------------------------------

Have fun.  Give me some feedback.
Comments