White Stripes - Jimmy The Exploder Chords & Tabs

 

Jimmy The Exploder Chords & Tabs

White Stripes Chords & Tabs

Version: 3 Type: Tab 0 ratings
1 star 2 stars 3 stars 4 stars 5 stars
comments

Jimmy The Exploder Tab

INTRO:

e-------3--1-------|          
b------------------|    
g-------------3-3--| x2
d------------------|
a------------------|
e-1--3-------------|
[ Tab from: http://www.guitartabs.cc/tabs/w/white_stripes/jimmy_the_exploder_tab_ver_3.html ]
e---------------------|
b---------------------| 
g---------5-/-7--5-4--| x4
d--------------------5|
a---3-/-5-------------|
e-3-------------------|

VERSe

e|----------|---|
B|----------|---|
G|----------|-3-|
D|-5-5--3-3-|-3-|
A|-5-5--3-3-|-1-|
E|-3-3--1-1-|---|
  Now Jimmy...Do you want to explode now?

INTERLUDE:

e|----------|-1-|
B|----------|-3-|
G|----------|-3-|
D|-5-5--3-2-|-3-|
A|-5-5--3-2-|-1-|
E|-3-3--1-0-|---|
  Green Apples...
Comments