White Stripes - In The Cold Of The Night (riff) Chords & Tabs

 

In The Cold Of The Night (riff) Chords & Tabs

White Stripes Chords & Tabs

Version: 1 Type: Tab 0 ratings
1 star 2 stars 3 stars 4 stars 5 stars
comments

In The Cold Of The Night (riff) Tab

   
#----------------------------------PLEASE NOTE---------------------------------#
#This file is the author's own work and represents their interpretation of the #
#song. You may only use this file for private study, scholarship, or research. #
#------------------------------------------------------------------------------#

Artist: The White Stripes
Song: In the cold, cold night
Album: Elephant
tabbed by DudePunk

Riff 1: 

e|-------------------------|
b|-------------------------|
g|-------------------------| 
d|-------------------------|
a|--3/5--5/8--8/10--10/12--|
E|-------------------------|

Riff 2:
[ Tab from: http://www.guitartabs.cc/tabs/w/white_stripes/in_the_cold_of_the_night_riff_tab.html ]
e|-------------------------|
b|-------------------------|
g|-------------------------|
d|-------------------------|
a|-------------------------|
E|--3/5--5/3---------------|

Riff 3:

e|-----------------------------------------------------------|
b|-----------------------------------------------------------|
g|-----------------------------------------------------------|
d|-----------------------------------------------------------|
a|--3/5--3/5--3/5--3/5--8/10--8/10--3/5--3/5-----------------|
E|--------------------------------------------3/5--5/3-------|

Intro: (Riff 1) x2


          
In the cold, cold night (Riff 1)x3 finish on a 3/5


Chords:
    A  G  E  F
e|--0--3--0--1--|
B|--2--0--0--1--|
G|--2--0--1--2--|
D|--2--0--2--3--|
A|--0--2--2--3--|
E|--0--3--0--1--|

Suggestions Comments:                         
fatass367@hotmail.com
fatass366@hotmail.com
 
Comments