White Stripes - In The Cold Cold Night Chords & Tabs

 

In The Cold Cold Night Chords & Tabs

White Stripes Chords & Tabs

Version: 7 Type: Tab 0 ratings
1 star 2 stars 3 stars 4 stars 5 stars
comments

In The Cold Cold Night Tab

Well this is my very first Tabs that I do I don't give a crap if you say its all wrong 
it sounds right to me. Play along with the Cd. Good luck!

Standard:Tunning

Intro:
E-------------------------|
A-3/5--5------------------|
D-------3-3/5-5/7---------|  repeat 4x
G-------------------------|
B-------------------------|
e-------------------------|
I saw you satnding in the corner
on the edge of a buring light
I saw you satnding in the corner

E----3/5----5/------------|
A-------------------------|
D-------------------------|
G-------------------------|
B-------------------------|
e-------------------------|
come to me agin
In the cold cold night(2x)

Verse:1
E-------------------------|
A-3/5--5------------------|
D-------3-3/5-5/7---------|  repeat 4x
G-------------------------|
B-------------------------|
e-------------------------|
You make me feel a little older
like a full growen women might
But when your gonna grow colder
E----3/5----5/------------|
A-------------------------|
D-------------------------|
G-------------------------|
B-------------------------|
e-------------------------|
come to me agin
in teh colc, cold night(2x)

Verse:2
E-------------------------|
A-3/5--5------------------|
D-------3-3/5-5/7---------|  repeat 2x
G-------------------------|
B-------------------------|
e-------------------------|

E-------------------------|
A--3/5---3/5---3/5---3/5--|
D-------------------------|
G-------------------------|
B-------------------------|
e-------------------------|
I hear you walking by my front door
I hear the creeking of the kitchen floor

E--------------------------|
A--------------------------|
D--3/5---3/5---------------|
G--------------------------|
B--------------------------|
e--------------------------|
I dont care what other people say
[ Tab from: http://www.guitartabs.cc/tabs/w/white_stripes/in_the_cold_cold_night_tab_ver_7.html ]
E-------------------------|
A-----3/5---3/5-----------|
D-------------------------|
G-------------------------|
B-------------------------|
e-------------------------|
I'm gonna love you anyways

E--3/5--5/3--------------|
A------------------------|
D------------------------|
G------------------------|
B------------------------|
e------------------------|
Come to me agian
in the cold cold night

E-------------------------|
A-3/5--5------------------|
D-------3-3/5-5/7---------|  repeat 7x
G-------------------------|
B-------------------------|
e-------------------------|

E--3/5--5/3--------------|
A------------------------|
D------------------------|
G------------------------|
B------------------------|
e------------------------|

E-------------------------|
A-3/5--5------------------|
D-------3-3/5-5/7---------|  repeat 4x
G-------------------------|
B-------------------------|
e-------------------------|
I cant sand it any longer
I need the fulr to make my fire bright
So don't fight it any loger.

E--3/5--5/3--------------|
A------------------------|
D------------------------|
G------------------------|
B------------------------|
e------------------------|
Come to me agin
in the cold cold night(2x)

E-------------5--------|
A---5-5--3-3--7--------|
D---7-7--5-5--7--------|
G---7-7--5-5-----------|
B----------------------|
e----------------------|
And i know that you feel it too
when my skin turns into gule
you will know that its warm in side

E-5-5/5----------------|
A-7-7/3----------------|
D-7-7/3----------------|
G----------------------|
B----------------------|
e----------------------|
and you come run to me

E-------------------------|
A-3/5--5------------------|
D-------3-3/5-5/7---------|  repeat 3x
G-------------------------|
B-------------------------|
e-------------------------|
I the cold cold night(3x)

E-------------------------|
A-3/5---------------------|
D-------------------------|
G-------------------------|
B-------------------------|
e-------------------------|
In teh cold cold night._______(Fade out)
Comments