White Stripes - In The Cold Cold Night Chords & Tabs

 

In The Cold Cold Night Chords & Tabs

White Stripes Chords & Tabs

Version: 2 Type: Tab 0 ratings
1 star 2 stars 3 stars 4 stars 5 stars
comments

In The Cold Cold Night Tab

Main Riff
Intro: 2 times

e-----------------------------------
B--------------6/8--8/10------------
G---5/7--7/10-----------------------
D-----------------------------------
A-----------------------------------
E-----------------------------------

Same thing for verse: 3 times

(I saw you standing in the corner....)

____________________________________________

Break: (Come to me again....)

e----------------------------------
B----------------------------------
G----------------------------------
D---5/7--7/5-----------------------
A----------------------------------
E----------------------------------

___________________________________________

Back to main riff for verse: 5 times

___________________________________________
[ Tab from: http://www.guitartabs.cc/tabs/w/white_stripes/in_the_cold_cold_night_tab_ver_2.html ]
Break: (Come to me again....)

e----------------------------------
B----------------------------------
G----------------------------------
D---5/7--7/5-----------------------
A----------------------------------
E----------------------------------
___________________________________________

Back to main riff for verse: 2 times
___________________________________________

(I hear you walkin by my front door....)

e-------------------------------------------------------
B------------------------6/8--6/8-----------------------
G---5/7--5/7--5/7--5/7----------------------------------
D-----------------------------------5/7--5/7------------
A----------------------------------------------5/7--5/7-
E-------------------------------------------------------

Back to main riff


That's all I have so far

Comments