White Stripes - Im Bound To Pack It Up Chords & Tabs

 

Im Bound To Pack It Up Chords & Tabs

White Stripes Chords & Tabs

Version: 2 Type: Tab 0 ratings
1 star 2 stars 3 stars 4 stars 5 stars
comments

Im Bound To Pack It Up Tab

Intro
|---2-----2---2---3---2---2---3---2---2--|
|---3-----3---3---3---3---3---3---3---3--|
|---2-----2---2---2---2---2---2---2---2--|
|---0-----0---0--------------------------|
|----------------------------------------|
|----------------------------------------|

|-s\-5-----5-5-5---6---5---5---6---5---5--|
|-s\-6-----6-6-6---6---6---6---6---6---6--|
|-s\-5-----5-5-5---5---5---5---5---5---5--|
|----0-----0---0--------------------------|
|-----------------------------------------|
|-----------------------------------------|

|-s\-7-----7-7-7---8---7---7---8---7---7--|
|-s\-8-----8-8-8---8---8---8---8---8---8--|
|-s\-7-----7-7-7---7---7---7---7---7---7--|
|----0-----0---0--------------------------|
|-----------------------------------------|
|-----------------------------------------|

|---2-----2---2---3---2---2------------2---|
|---3-----3---3---3---3---3------------3---|
|---2-----2---2---2---2---2------------2---|
|---0-----0---0-----------------3--0---0---|
|------------------------------------3-----|
|------------------------------------------|Repeat-then repeat through verse
[ Tab from: http://www.guitartabs.cc/tabs/w/white_stripes/im_bound_to_pack_it_up_tab_ver_2.html ]
Chorus
|--------------------3---3---|--------------------3---3---|
|---1-----1---0-0-0--3---3---|---1-----1---0-0-0--3---3---|
|---0-----0---0-0-0--0---0---|---0-----0---0-0-0--0---0---|
|---2-----2---0-0-0--0---0---|---2-----2---0-0-0--0---0---|
|---3-----3---0-0-0----------|---3-----3---0-0-0----------|
|--------------------3---3---|--------------------3---3---|

|---2-----2---2---3---2---2---3---2---2--|
|---3-----3---3---3---3---3---3---3---3--|
|---2-----2---2---2---2---2---2---2---2--|
|---0-----0---0--------------------------|
|----------------------------------------|
|----------------------------------------|Repeat

|--------------------3---3---|--------------------3---3---|
|---1-----1---0-0-0--3---3---|---1-----1---0-0-0--3---3---|
|---0-----0---0-0-0--0---0---|---0-----0---0-0-0--0---0---|
|---2-----2---0-0-0--0---0---|---2-----2---0-0-0--0---0---|
|---3-----3---0-0-0----------|---3-----3---0-0-0----------|
|--------------------3---3---|--------------------3---3---|

|--------------------------------|
|--------------------------------|
|--------------------------------|
|---3----------------------------|
|---3----------------------------|
|---1-(a lot)--------------------|

|---3--3--3-------2--|
|---3--3--3--0-0--3--|
|---0--0--0--0-0--2--|
|---0--0--0--0-0--0--|
|------------0-0-----|
|---3--3--3----------| back to beginning

Ending
|---14--|
|---15--|
|---14--|
|---0---|
|-------|
|-------|

Have fun!
Comments