White Stripes - I Think I Smell A Rat Chords & Tabs

 

I Think I Smell A Rat Chords & Tabs

White Stripes Chords & Tabs

Version: 6 Type: Tab 0 ratings
1 star 2 stars 3 stars 4 stars 5 stars
comments

I Think I Smell A Rat Tab

   
Tabbed by Vaal

Here's the 100% correct tab of I Think I Smell a Rat. 
the song's pretty easy so i don't think you're gonna have any problem 
playing it.

Just do everything in this order :

                  THESE ARE THE RIFF'S
<------------------------------------------------------------------->

INTRO/RIFF 1 : 

E--5--7--8--7---5---5------------------------   
B-------------8------------------------------                             
G--------------------------------------------                      
D--------------------------------------------
A--------------------------------------------
e--------------------------------------------

Am Am Am G Am

RIFF 1 again

Am Am Am G Em

RIFF 2 :
E-------------------
B-5-6-8-6-5-----5---
G------------7------ 
D-------------------
A-------------------
e-------------------

Em Em Em G Am

RIFF 1 AGAIN 

Am Am Am G Am

<------------------------------------------------------------------>

[ Tab from: http://www.guitartabs.cc/tabs/w/white_stripes/i_think_i_smell_a_rat_tab_ver_6.html ]
                      Em 
Oh I think I smell a rat
                    Am
I think I smell a rat
                                    Em
All you little kids seem to think you know just where it's at
                     Am
Oh I think I smell a rat
                                          Em
Walking down the street carrying a baseball bat
                      Am
Oh I think I smell a rat



<-- NOW DO ALL OF THE RIFF'S AGAIN -->


                        Em
Oh I think I smell a rat
                      Am
Oh I think I smell a rat
                                                        Em                                      
All you little kids seem to think you know just where is at
                     Am
Oh I think I smell a rat
                                           Em
Using your mother and father for a welcome mat
                      Am
Oh I think I smell a rat 



<-- DO ALL OF THE RIFF'S AGAIN -->




It may seem a little confusing at first but if you listen to the song 
you will understand.

Have Fun!

Send any comments to ramsesde2e@hotmail.com
Comments