White Stripes - I Think I Smell A Rat Chords & Tabs

 

I Think I Smell A Rat Chords & Tabs

White Stripes Chords & Tabs

Version: 5 Type: Tab 0 ratings
1 star 2 stars 3 stars 4 stars 5 stars
comments

I Think I Smell A Rat Tab

White Stripes - I Think I Smell A Rat (Intro)
[ Tab from: http://www.guitartabs.cc/tabs/w/white_stripes/i_think_i_smell_a_rat_tab_ver_5.html ]
E----5-7-8-7-5--5---------------5-7-8-7-5---5----------------------------------
B-------------8--------------------------8-------------------------------------
G----------------5-5-5---4--5-----------------5-5-5---4------------------------
D----------------7-7-7---5--7-----------------7-7-7---5------------------------
A----------------7-7-7---5--7-----------------7-7-7---5------------------------
E----------------5-5-5---3--5-----------------5-5-5---3------------------------


E-----0-1-3-1-0--0------------5-7-8-7-5---5------------------------------------
B--------------3-----------------------8---------------------------------------
G--------------------------5---------------5--5--5--4--5-----------------------
D--2---------------2-2-2-5--7--------------7--7--7---5--7----------------------
A--2---------------2-2-2-5--7--------------7--7--7---5--7----------------------
E--0---------------0-0-0-3--5--------------5--5--5---3--5----------------------
Comments