White Stripes - I Just Dont Know What To Do With Myself Chords & Tabs

 

I Just Dont Know What To Do With Myself Chords & Tabs

White Stripes Chords & Tabs

Version: 3 Type: Tab 2 ratings
1 star 2 stars 3 stars 4 stars 5 stars
comments

I Just Dont Know What To Do With Myself Tab

   
Artist: The White Stripes 
Song: I just don’t know what to do with myself
Tabbed By: pnk_rok_animal

x = scratch
* = palm mute
r = let note ring
~ = vibrato/trem action




Intro X2 G,C,G,
E|--3-3-3--0-0-0--3r*---|-------------|
B|--0-0-0--1-1-1--0r*---|-------------|
G|--0-0-0--0-0-0--0r*---|-------------|
D|--0-0-0--2-2-2--0r*---|-------------|
A|--2-2-2--3-3-3--2r*---|---5-5-3-2---|
E|--3-3-3--0-0-0--3r*---|-------------|


Verse X2 G,C,G        
E|--3-3-3--0-0-0--3r*---|-3-3r*----|
B|--0-0-0--1-1-1--0r*---|-3-3r*----|
G|--0-0-0--0-0-0--0r*---|-4-4r*----|
D|--0-0-0--2-2-2--0r*---|-5-5r*----|
A|--2-2-2--3-3-3--2r*---|-5-5r*----|
E|--3-3-3--0-0-0--3r*---|-3-3r*----|

[ Tab from: http://www.guitartabs.cc/tabs/w/white_stripes/i_just_dont_know_what_to_do_with_myself_tab_ver_3.html ]
Bridge    Am  (X2)         F (X2)            C            G      C    G
E|-----0--0r*--0r*--|-----1--1r*--1r*--|-0-0-0-0-----|-3-3-3--0-0-0--3r*--|
B|-----1--1r*--1r*--|-----1--1r*--1r*--|-1-1-1-1-1r--|-0-0-0--1-1-1--0r*--|
G|-----2--2r*--2r*--|-----2--2r*--2r*--|-0-0-0-0-0r--|-0-0-0--0-0-0--0r*--|
D|-2x--2-------2r*--|-3x--3-------3r*--|-2-2-2-2-2r--|-0-0-0--2-2-2--0r*--|
A|-0x--0-------0r*--|-0x--0-------0r*--|-3-3-3-3-3r--|-2-2-2--3-3-3--2r*--|
E|------------------|------------------|-0-0-0-0-----|-3-3-3--0-0-0--3r*--|


Chorus           G                 C                 Am                C      G
E|--x-x-------------------|-----------------|-0---0----0-0-000-0-0-|----------3r*-|
B|--x-x-------------------|-----------------|-1b~-1b~--1-1-111-1-1-|----------3r*-|
G|--x-x-------------------|-5-5-5555-5-5-55-|-2b~-2b~--2-2-222-2-2-|-55555555-4r*-|
D|--x-x--5-5-5555-5-5-555-|-5-5-5555-5-5-55-|-2b~-2b~--2-2-222-2-2-|-55555555-5r*-|
A|--x-x--5-5-5555-5-5-555-|-3-3-3333-3-3-33-|-0---0----------------|-33333333-5r*-|
E|--x-x--3-3-3333-3-3-333-|-0-0-0000-0-0-00-|----------------------|-00000000-3r*-|


Final Chorus (as many times as u want, leave out the solo on the last time)
E|----------------3r*--|----------|
B|----------------3r*--|----------|
G|---------5-5-5--4r*--|-7-7-5-4--|
D|--5-5-5--5-5-5--5r*--|----------|
A|--5-5-5--3-3-3--5r*--|----------|
E|--3-3-3--0-0-0--3r*--|----------|


Song order:
Just listen man
Comments